  0
SECTION
  2
HEADER
  9
$ACADVER
  1
AC1015
  9
$ACADMAINTVER
 70
     6
  9
$DWGCODEPAGE
  3
ANSI_1252
  9
$INSBASE
 10
0.0
 20
0.0
 30
0.0
  9
$EXTMIN
 10
0.0
 20
0.0
 30
0.0
  9
$EXTMAX
 10
297.0
 20
210.0
 30
0.0
  9
$LIMMIN
 10
0.0
 20
0.0
  9
$LIMMAX
 10
297.0
 20
210.0
  9
$ORTHOMODE
 70
     0
  9
$REGENMODE
 70
     1
  9
$FILLMODE
 70
     1
  9
$QTEXTMODE
 70
     0
  9
$MIRRTEXT
 70
     1
  9
$LTSCALE
 40
1.0
  9
$ATTMODE
 70
     1
  9
$TEXTSIZE
 40
3.5
  9
$TRACEWID
 40
1.0
  9
$TEXTSTYLE
  7
Standard
  9
$CLAYER
  8
0
  9
$CELTYPE
  6
ByLayer
  9
$CECOLOR
 62
   256
  9
$CELTSCALE
 40
1.0
  9
$DISPSILH
 70
     0
  9
$DIMSCALE
 40
1.0
  9
$DIMASZ
 40
3.302
  9
$DIMEXO
 40
1.0
  9
$DIMDLI
 40
3.75
  9
$DIMRND
 40
0.0
  9
$DIMDLE
 40
0.0
  9
$DIMEXE
 40
1.0
  9
$DIMTP
 40
0.0
  9
$DIMTM
 40
0.0
  9
$DIMTXT
 40
3.5
  9
$DIMCEN
 40
2.5
  9
$DIMTSZ
 40
0.0
  9
$DIMTOL
 70
     0
  9
$DIMLIM
 70
     0
  9
$DIMTIH
 70
     1
  9
$DIMTOH
 70
     1
  9
$DIMSE1
 70
     0
  9
$DIMSE2
 70
     0
  9
$DIMTAD
 70
     1
  9
$DIMZIN
 70
     0
  9
$DIMBLK
  1

  9
$DIMASO
 70
     1
  9
$DIMSHO
 70
     1
  9
$DIMPOST
  1

  9
$DIMAPOST
  1

  9
$DIMALT
 70
     0
  9
$DIMALTD
 70
     3
  9
$DIMALTF
 40
0.0393700787
  9
$DIMLFAC
 40
1.0
  9
$DIMTOFL
 70
     1
  9
$DIMTVP
 40
0.0
  9
$DIMTIX
 70
     0
  9
$DIMSOXD
 70
     0
  9
$DIMSAH
 70
     0
  9
$DIMBLK1
  1

  9
$DIMBLK2
  1

  9
$DIMSTYLE
  2
ISO-25
  9
$DIMCLRD
 70
     0
  9
$DIMCLRE
 70
     0
  9
$DIMCLRT
 70
     0
  9
$DIMTFAC
 40
1.0
  9
$DIMGAP
 40
1.524
  9
$DIMJUST
 70
     0
  9
$DIMSD1
 70
     0
  9
$DIMSD2
 70
     0
  9
$DIMTOLJ
 70
     0
  9
$DIMTZIN
 70
     0
  9
$DIMALTZ
 70
     0
  9
$DIMALTTZ
 70
     0
  9
$DIMUPT
 70
     0
  9
$DIMDEC
 70
     2
  9
$DIMTDEC
 70
     2
  9
$DIMALTU
 70
     2
  9
$DIMALTTD
 70
     3
  9
$DIMTXSTY
  7
Standard
  9
$DIMAUNIT
 70
     0
  9
$DIMADEC
 70
     2
  9
$DIMALTRND
 40
0.0
  9
$DIMAZIN
 70
     0
  9
$DIMDSEP
 70
    44
  9
$DIMATFIT
 70
     3
  9
$DIMFRAC
 70
     0
  9
$DIMLDRBLK
  1

  9
$DIMLUNIT
 70
     2
  9
$DIMLWD
 70
    -2
  9
$DIMLWE
 70
    -2
  9
$DIMTMOVE
 70
     0
  9
$LUNITS
 70
     2
  9
$LUPREC
 70
     2
  9
$SKETCHINC
 40
1.0
  9
$FILLETRAD
 40
10.0
  9
$AUNITS
 70
     0
  9
$AUPREC
 70
     2
  9
$MENU
  1
.
  9
$ELEVATION
 40
0.0
  9
$PELEVATION
 40
0.0
  9
$THICKNESS
 40
0.0
  9
$LIMCHECK
 70
     0
  9
$CHAMFERA
 40
0.0
  9
$CHAMFERB
 40
0.0
  9
$CHAMFERC
 40
0.0
  9
$CHAMFERD
 40
0.0
  9
$SKPOLY
 70
     0
  9
$TDCREATE
 40
2456944.459791169
  9
$TDUCREATE
 40
2456944.376457836
  9
$TDUPDATE
 40
2456944.459793333
  9
$TDUUPDATE
 40
2456944.37646
  9
$TDINDWG
 40
0.0000000116
  9
$TDUSRTIMER
 40
0.0000000116
  9
$USRTIMER
 70
     1
  9
$ANGBASE
 50
0.0
  9
$ANGDIR
 70
     0
  9
$PDMODE
 70
     0
  9
$PDSIZE
 40
-1.0
  9
$PLINEWID
 40
0.0
  9
$SPLFRAME
 70
     0
  9
$SPLINETYPE
 70
     6
  9
$SPLINESEGS
 70
     8
  9
$HANDSEED
  5
200
  9
$SURFTAB1
 70
     6
  9
$SURFTAB2
 70
     6
  9
$SURFTYPE
 70
     6
  9
$SURFU
 70
     6
  9
$SURFV
 70
     6
  9
$UCSBASE
  2

  9
$UCSNAME
  2

  9
$UCSORG
 10
0.0
 20
0.0
 30
0.0
  9
$UCSXDIR
 10
1.0
 20
0.0
 30
0.0
  9
$UCSYDIR
 10
0.0
 20
1.0
 30
0.0
  9
$UCSORTHOREF
  2

  9
$UCSORTHOVIEW
 70
     0
  9
$UCSORGTOP
 10
0.0
 20
0.0
 30
0.0
  9
$UCSORGBOTTOM
 10
0.0
 20
0.0
 30
0.0
  9
$UCSORGLEFT
 10
0.0
 20
0.0
 30
0.0
  9
$UCSORGRIGHT
 10
0.0
 20
0.0
 30
0.0
  9
$UCSORGFRONT
 10
0.0
 20
0.0
 30
0.0
  9
$UCSORGBACK
 10
0.0
 20
0.0
 30
0.0
  9
$PUCSBASE
  2

  9
$PUCSNAME
  2

  9
$PUCSORG
 10
0.0
 20
0.0
 30
0.0
  9
$PUCSXDIR
 10
1.0
 20
0.0
 30
0.0
  9
$PUCSYDIR
 10
0.0
 20
1.0
 30
0.0
  9
$PUCSORTHOREF
  2

  9
$PUCSORTHOVIEW
 70
     0
  9
$PUCSORGTOP
 10
0.0
 20
0.0
 30
0.0
  9
$PUCSORGBOTTOM
 10
0.0
 20
0.0
 30
0.0
  9
$PUCSORGLEFT
 10
0.0
 20
0.0
 30
0.0
  9
$PUCSORGRIGHT
 10
0.0
 20
0.0
 30
0.0
  9
$PUCSORGFRONT
 10
0.0
 20
0.0
 30
0.0
  9
$PUCSORGBACK
 10
0.0
 20
0.0
 30
0.0
  9
$USERI1
 70
     0
  9
$USERI2
 70
     0
  9
$USERI3
 70
     0
  9
$USERI4
 70
     0
  9
$USERI5
 70
     0
  9
$USERR1
 40
0.0
  9
$USERR2
 40
0.0
  9
$USERR3
 40
0.0
  9
$USERR4
 40
0.0
  9
$USERR5
 40
0.0
  9
$WORLDVIEW
 70
     1
  9
$SHADEDGE
 70
     3
  9
$SHADEDIF
 70
    70
  9
$TILEMODE
 70
     1
  9
$MAXACTVP
 70
    64
  9
$PINSBASE
 10
0.0
 20
0.0
 30
0.0
  9
$PLIMCHECK
 70
     0
  9
$PEXTMIN
 10
1.0000000000E+20
 20
1.0000000000E+20
 30
1.0000000000E+20
  9
$PEXTMAX
 10
-1.0000000000E+20
 20
-1.0000000000E+20
 30
-1.0000000000E+20
  9
$PLIMMIN
 10
0.0
 20
0.0
  9
$PLIMMAX
 10
420.0
 20
297.0
  9
$UNITMODE
 70
     0
  9
$VISRETAIN
 70
     1
  9
$PLINEGEN
 70
     0
  9
$PSLTSCALE
 70
     1
  9
$TREEDEPTH
 70
  3020
  9
$CMLSTYLE
  2
Standard
  9
$CMLJUST
 70
     0
  9
$CMLSCALE
 40
20.0
  9
$PROXYGRAPHICS
 70
     1
  9
$MEASUREMENT
 70
     1
  9
$CELWEIGHT
370
    -1
  9
$ENDCAPS
280
     0
  9
$JOINSTYLE
280
     0
  9
$LWDISPLAY
290
     1
  9
$INSUNITS
 70
     4
  9
$HYPERLINKBASE
  1

  9
$STYLESHEET
  1

  9
$XEDIT
290
     1
  9
$CEPSNTYPE
380
     0
  9
$PSTYLEMODE
290
     1
  9
$FINGERPRINTGUID
  2
{F2FCBA9E-CFD9-4E6C-8B7C-D856BF17B72C}
  9
$VERSIONGUID
  2
{FAEB1C32-E019-11D5-929B-00C0DF256EC4}
  9
$EXTNAMES
290
     1
  9
$PSVPSCALE
 40
0.0
  9
$OLESTARTUP
290
     0
  0
ENDSEC
  0
SECTION
  2
CLASSES
  0
CLASS
  1
ACDBDICTIONARYWDFLT
  2
AcDbDictionaryWithDefault
  3
ObjectDBX Classes
 90
        0
280
     0
281
     0
  0
CLASS
  1
VISUALSTYLE
  2
AcDbVisualStyle
  3
ObjectDBX Classes
 90
     4095
280
     0
281
     0
  0
CLASS
  1
MATERIAL
  2
AcDbMaterial
  3
ObjectDBX Classes
 90
     1153
280
     0
281
     0
  0
CLASS
  1
SCALE
  2
AcDbScale
  3
ObjectDBX Classes
 90
     1153
280
     0
281
     0
  0
CLASS
  1
SUN
  2
AcDbSun
  3
SCENEOE
 90
     1153
280
     0
281
     0
  0
CLASS
  1
ACDBPLACEHOLDER
  2
AcDbPlaceHolder
  3
ObjectDBX Classes
 90
        0
280
     0
281
     0
  0
CLASS
  1
LAYOUT
  2
AcDbLayout
  3
ObjectDBX Classes
 90
        0
280
     0
281
     0
  0
ENDSEC
  0
SECTION
  2
TABLES
  0
TABLE
  2
VPORT
  5
8
330
0
100
AcDbSymbolTable
 70
     1
  0
VPORT
  5
29
330
8
100
AcDbSymbolTableRecord
100
AcDbViewportTableRecord
  2
*Active
 70
     0
 10
0.0
 20
0.0
 11
1.0
 21
1.0
 12
148.5
 22
105.0
 13
0.0
 23
0.0
 14
10.0
 24
10.0
 15
10.0
 25
10.0
 16
0.0
 26
0.0
 36
1.0
 17
0.0
 27
0.0
 37
0.0
 40
210.0
 41
1.4142857143
 42
50.0
 43
0.0
 44
0.0
 50
0.0
 51
0.0
 71
     0
 72
  2000
 73
     1
 74
     3
 75
     0
 76
     0
 77
     0
 78
     0
281
     0
 65
     1
110
0.0
120
0.0
130
0.0
111
1.0
121
0.0
131
0.0
112
0.0
122
1.0
132
0.0
 79
     0
146
0.0
  0
ENDTAB
  0
TABLE
  2
LTYPE
  5
5
330
0
100
AcDbSymbolTable
 70
     6
  0
LTYPE
  5
14
330
5
100
AcDbSymbolTableRecord
100
AcDbLinetypeTableRecord
  2
ByBlock
 70
     0
  3

 72
    65
 73
     0
 40
0.0
  0
LTYPE
  5
15
330
5
100
AcDbSymbolTableRecord
100
AcDbLinetypeTableRecord
  2
ByLayer
 70
     0
  3

 72
    65
 73
     0
 40
0.0
  0
LTYPE
  5
16
330
5
100
AcDbSymbolTableRecord
100
AcDbLinetypeTableRecord
  2
Continuous
 70
     0
  3
Solid line
 72
    65
 73
     0
 40
0.0
  0
LTYPE
  5
6A
330
5
100
AcDbSymbolTableRecord
100
AcDbLinetypeTableRecord
  2
HIDDEN
 70
     0
  3
Hidden __ __ __ __ __ __ __ __ __ __ __ __ __ __
 72
    65
 73
     2
 40
1.905
 49
1.27
 74
     0
 49
-0.635
 74
     0
  0
LTYPE
  5
6B
330
5
100
AcDbSymbolTableRecord
100
AcDbLinetypeTableRecord
  2
PHANTOM
 70
     0
  3
Phantom ______  __  __  ______  __  __  ______
 72
    65
 73
     6
 40
12.7
 49
6.35
 74
     0
 49
-1.27
 74
     0
 49
1.27
 74
     0
 49
-1.27
 74
     0
 49
1.27
 74
     0
 49
-1.27
 74
     0
  0
LTYPE
  5
6C
330
5
100
AcDbSymbolTableRecord
100
AcDbLinetypeTableRecord
  2
CENTER
 70
     0
  3
Center ____ _ ____ _ ____ _ ____ _ ____ _ ____
 72
    65
 73
     4
 40
10.16
 49
6.35
 74
     0
 49
-1.27
 74
     0
 49
1.27
 74
     0
 49
-1.27
 74
     0
  0
LTYPE
  5
6D
330
5
100
AcDbSymbolTableRecord
100
AcDbLinetypeTableRecord
  2
CENTERX2
 70
     0
  3
Center (2x) ________  __  ________  __  _____
 72
    65
 73
     4
 40
20.32
 49
12.7
 74
     0
 49
-2.54
 74
     0
 49
2.54
 74
     0
 49
-2.54
 74
     0
  0
LTYPE
  5
6E
330
5
100
AcDbSymbolTableRecord
100
AcDbLinetypeTableRecord
  2
DOT2
 70
     0
  3
Dot (.5x) ........................................
 72
    65
 73
     2
 40
0.635
 49
0.0
 74
     0
 49
-0.635
 74
     0
  0
ENDTAB
  0
TABLE
  2
LAYER
  5
2
330
0
100
AcDbSymbolTable
 70
     2
  0
LAYER
  5
10
330
2
100
AcDbSymbolTableRecord
100
AcDbLayerTableRecord
  2
0
 70
     0
 62
     7
  6
Continuous
370
    -3
390
F
  0
LAYER
  5
6F
330
2
100
AcDbSymbolTableRecord
100
AcDbLayerTableRecord
  2
FORMAT
 70
     0
 62
     7
  6
Continuous
370
    -3
390
F
  0
ENDTAB
  0
TABLE
  2
STYLE
  5
3
330
0
100
AcDbSymbolTable
 70
     3
  0
STYLE
  5
11
330
3
100
AcDbSymbolTableRecord
100
AcDbTextStyleTableRecord
  2
Standard
 70
     0
 40
0.0
 41
1.0
 50
0.0
 71
     0
 42
3.5
  3
txt
  4

  0
STYLE
  5
8C
330
3
100
AcDbSymbolTableRecord
100
AcDbTextStyleTableRecord
  2
SLDTEXTSTYLE0
 70
     0
 40
0.0
 41
0.75
 50
0.0
 71
     0
 42
3.5
  3
TXT
  4

  0
STYLE
  5
94
330
3
100
AcDbSymbolTableRecord
100
AcDbTextStyleTableRecord
  2
SLDTEXTSTYLE1
 70
     0
 40
0.0
 41
0.6923076923
 50
0.0
 71
     0
 42
3.5
  3
TXT
  4

  0
ENDTAB
  0
TABLE
  2
VIEW
  5
6
330
0
100
AcDbSymbolTable
 70
     0
  0
ENDTAB
  0
TABLE
  2
UCS
  5
7
330
0
100
AcDbSymbolTable
 70
     0
  0
ENDTAB
  0
TABLE
  2
APPID
  5
9
330
0
100
AcDbSymbolTable
 70
     1
  0
APPID
  5
12
330
9
100
AcDbSymbolTableRecord
100
AcDbRegAppTableRecord
  2
ACAD
 70
     0
  0
ENDTAB
  0
TABLE
  2
DIMSTYLE
  5
A
330
0
100
AcDbSymbolTable
 70
     1
100
AcDbDimStyleTable
  0
DIMSTYLE
105
27
330
A
100
AcDbSymbolTableRecord
100
AcDbDimStyleTableRecord
  2
ISO-25
 70
     0
 41
2.5
 42
0.625
 43
3.75
 44
1.25
 73
     0
 74
     0
 77
     1
 78
     8
140
2.5
141
2.5
143
0.0393700787
147
0.625
171
     3
172
     1
178
     0
271
     2
272
     2
274
     3
278
    44
283
     0
284
     8
340
11
  0
ENDTAB
  0
TABLE
  2
BLOCK_RECORD
  5
1
330
0
100
AcDbSymbolTable
 70
     3
  0
BLOCK_RECORD
  5
1F
330
1
100
AcDbSymbolTableRecord
100
AcDbBlockTableRecord
  2
*Model_Space
340
22
  0
BLOCK_RECORD
  5
1B
330
1
100
AcDbSymbolTableRecord
100
AcDbBlockTableRecord
  2
*Paper_Space
340
1E
  0
BLOCK_RECORD
  5
23
330
1
100
AcDbSymbolTableRecord
100
AcDbBlockTableRecord
  2
*Paper_Space0
340
26
  0
BLOCK_RECORD
  5
B1
330
1
100
AcDbSymbolTableRecord
100
AcDbBlockTableRecord
  2
SW_CENTERMARKSYMBOL_0
340
0
102
{BLKREFS
331
BC
102
}
  0
BLOCK_RECORD
  5
178
330
1
100
AcDbSymbolTableRecord
100
AcDbBlockTableRecord
  2
SW_CENTERMARKSYMBOL_1
340
0
102
{BLKREFS
331
183
102
}
  0
ENDTAB
  0
ENDSEC
  0
SECTION
  2
BLOCKS
  0
BLOCK
  5
20
330
1F
100
AcDbEntity
  8
0
100
AcDbBlockBegin
  2
*Model_Space
 70
     0
 10
0.0
 20
0.0
 30
0.0
  3
*Model_Space
  1
*Model_Space
  0
ENDBLK
  5
21
330
1F
100
AcDbEntity
  8
0
100
AcDbBlockEnd
  0
BLOCK
  5
1C
330
1B
100
AcDbEntity
 67
     1
  8
0
100
AcDbBlockBegin
  2
*Paper_Space
 70
     0
 10
0.0
 20
0.0
 30
0.0
  3
*Paper_Space
  1
*Paper_Space
  0
ENDBLK
  5
1D
330
1B
100
AcDbEntity
 67
     1
  8
0
100
AcDbBlockEnd
  0
BLOCK
  5
24
330
23
100
AcDbEntity
  8
0
100
AcDbBlockBegin
  2
*Paper_Space0
 70
     0
 10
0.0
 20
0.0
 30
0.0
  3
*Paper_Space0
  1
*Paper_Space0
  0
ENDBLK
  5
25
330
23
100
AcDbEntity
  8
0
100
AcDbBlockEnd
  0
BLOCK
  5
B2
330
B1
100
AcDbEntity
  8
0
100
AcDbBlockBegin
  2
SW_CENTERMARKSYMBOL_0
 70
     0
 10
0.0
 20
0.0
 30
0.0
  3
SW_CENTERMARKSYMBOL_0
  1
SW_CENTERMARKSYMBOL_0
  0
LINE
  5
B4
330
B1
100
AcDbEntity
  8
0
  6
Continuous
 62
     0
370
     0
100
AcDbLine
 10
0.0
 20
0.0
 30
0.0
 11
0.0
 21
2.5
 31
0.0
  0
LINE
  5
B5
330
B1
100
AcDbEntity
  8
0
  6
Continuous
 62
     0
370
     0
100
AcDbLine
 10
0.0
 20
0.0
 30
0.0
 11
-2.5
 21
0.0
 31
0.0
  0
LINE
  5
B6
330
B1
100
AcDbEntity
  8
0
  6
Continuous
 62
     0
370
     0
100
AcDbLine
 10
0.0
 20
0.0
 30
0.0
 11
0.0
 21
-2.5
 31
0.0
  0
LINE
  5
B7
330
B1
100
AcDbEntity
  8
0
  6
Continuous
 62
     0
370
     0
100
AcDbLine
 10
0.0
 20
0.0
 30
0.0
 11
2.5
 21
0.0
 31
0.0
  0
LINE
  5
B8
330
B1
100
AcDbEntity
  8
0
  6
Continuous
 62
     0
370
     0
100
AcDbLine
 10
0.0
 20
5.0
 30
0.0
 11
0.0
 21
37.5
 31
0.0
  0
LINE
  5
B9
330
B1
100
AcDbEntity
  8
0
  6
Continuous
 62
     0
370
     0
100
AcDbLine
 10
-5.0
 20
0.0
 30
0.0
 11
-37.5
 21
0.0
 31
0.0
  0
LINE
  5
BA
330
B1
100
AcDbEntity
  8
0
  6
Continuous
 62
     0
370
     0
100
AcDbLine
 10
0.0
 20
-5.0
 30
0.0
 11
0.0
 21
-37.5
 31
0.0
  0
LINE
  5
BB
330
B1
100
AcDbEntity
  8
0
  6
Continuous
 62
     0
370
     0
100
AcDbLine
 10
5.0
 20
0.0
 30
0.0
 11
37.5
 21
0.0
 31
0.0
  0
ENDBLK
  5
B3
330
B1
100
AcDbEntity
  8
0
100
AcDbBlockEnd
  0
BLOCK
  5
179
330
178
100
AcDbEntity
  8
0
100
AcDbBlockBegin
  2
SW_CENTERMARKSYMBOL_1
 70
     0
 10
0.0
 20
0.0
 30
0.0
  3
SW_CENTERMARKSYMBOL_1
  1
SW_CENTERMARKSYMBOL_1
  0
LINE
  5
17B
330
178
100
AcDbEntity
  8
0
  6
Continuous
 62
     0
370
     0
100
AcDbLine
 10
0.0
 20
0.0
 30
0.0
 11
0.0
 21
2.5
 31
0.0
  0
LINE
  5
17C
330
178
100
AcDbEntity
  8
0
  6
Continuous
 62
     0
370
     0
100
AcDbLine
 10
0.0
 20
0.0
 30
0.0
 11
-2.5
 21
0.0
 31
0.0
  0
LINE
  5
17D
330
178
100
AcDbEntity
  8
0
  6
Continuous
 62
     0
370
     0
100
AcDbLine
 10
0.0
 20
0.0
 30
0.0
 11
0.0
 21
-2.5
 31
0.0
  0
LINE
  5
17E
330
178
100
AcDbEntity
  8
0
  6
Continuous
 62
     0
370
     0
100
AcDbLine
 10
0.0
 20
0.0
 30
0.0
 11
2.5
 21
0.0
 31
0.0
  0
LINE
  5
17F
330
178
100
AcDbEntity
  8
0
  6
Continuous
 62
     0
370
     0
100
AcDbLine
 10
0.0
 20
5.0
 30
0.0
 11
0.0
 21
37.5
 31
0.0
  0
LINE
  5
180
330
178
100
AcDbEntity
  8
0
  6
Continuous
 62
     0
370
     0
100
AcDbLine
 10
-5.0
 20
0.0
 30
0.0
 11
-37.5
 21
0.0
 31
0.0
  0
LINE
  5
181
330
178
100
AcDbEntity
  8
0
  6
Continuous
 62
     0
370
     0
100
AcDbLine
 10
0.0
 20
-5.0
 30
0.0
 11
0.0
 21
-37.5
 31
0.0
  0
LINE
  5
182
330
178
100
AcDbEntity
  8
0
  6
Continuous
 62
     0
370
     0
100
AcDbLine
 10
5.0
 20
0.0
 30
0.0
 11
37.5
 21
0.0
 31
0.0
  0
ENDBLK
  5
17A
330
178
100
AcDbEntity
  8
0
100
AcDbBlockEnd
  0
ENDSEC
  0
SECTION
  2
ENTITIES
  0
LINE
  5
70
330
1F
100
AcDbEntity
  8
0
  6
Continuous
 62
     7
370
     0
100
AcDbLine
 10
292.0
 20
205.0
 30
0.0
 11
292.0
 21
5.0
 31
0.0
  0
LINE
  5
71
330
1F
100
AcDbEntity
  8
0
  6
Continuous
 62
     7
370
     0
100
AcDbLine
 10
159.4
 20
34.75
 30
0.0
 11
174.13
 21
34.75
 31
0.0
  0
LINE
  5
72
330
1F
100
AcDbEntity
  8
0
  6
Continuous
 62
     7
370
     0
100
AcDbLine
 10
203.6
 20
34.75
 30
0.0
 11
292.0
 21
34.75
 31
0.0
  0
LINE
  5
73
330
1F
100
AcDbEntity
  8
0
  6
Continuous
 62
     7
370
     0
100
AcDbLine
 10
159.4
 20
9.25
 30
0.0
 11
292.0
 21
9.25
 31
0.0
  0
LINE
  5
74
330
1F
100
AcDbEntity
  8
0
  6
Continuous
 62
     7
370
     0
100
AcDbLine
 10
159.4
 20
34.75
 30
0.0
 11
159.4
 21
28.375
 31
0.0
  0
LINE
  5
75
330
1F
100
AcDbEntity
  8
0
  6
Continuous
 62
     7
370
     0
100
AcDbLine
 10
292.0
 20
22.0
 30
0.0
 11
279.0
 21
22.0
 31
0.0
  0
LINE
  5
76
330
1F
100
AcDbEntity
  8
0
  6
Continuous
 62
     7
370
     0
100
AcDbLine
 10
188.86
 20
22.0
 30
0.0
 11
203.6
 21
22.0
 31
0.0
  0
LINE
  5
77
330
1F
100
AcDbEntity
  8
0
  6
Continuous
 62
     7
370
     0
100
AcDbLine
 10
203.6
 20
34.75
 30
0.0
 11
203.6
 21
5.0
 31
0.0
  0
LINE
  5
78
330
1F
100
AcDbEntity
  8
0
  6
Continuous
 62
     7
370
     0
100
AcDbLine
 10
247.8
 20
5.0
 30
0.0
 11
247.8
 21
9.25
 31
0.0
  0
LINE
  5
79
330
1F
100
AcDbEntity
  8
0
  6
Continuous
 62
     7
370
     0
100
AcDbLine
 10
174.13
 20
34.75
 30
0.0
 11
188.86
 21
34.75
 31
0.0
  0
LINE
  5
7A
330
1F
100
AcDbEntity
  8
0
  6
Continuous
 62
     7
370
     0
100
AcDbLine
 10
279.0
 20
9.25
 30
0.0
 11
279.0
 21
15.4949693602
 31
0.0
  0
LINE
  5
7B
330
1F
100
AcDbEntity
  8
0
  6
Continuous
 62
     7
370
     0
100
AcDbLine
 10
188.86
 20
34.75
 30
0.0
 11
203.6
 21
34.75
 31
0.0
  0
LINE
  5
7C
330
1F
100
AcDbEntity
  8
0
  6
Continuous
 62
     7
370
     0
100
AcDbLine
 10
292.0
 20
15.4949693602
 30
0.0
 11
279.0
 21
15.4949693602
 31
0.0
  0
LINE
  5
7D
330
1F
100
AcDbEntity
  8
0
  6
Continuous
 62
     7
370
     0
100
AcDbLine
 10
203.6
 20
22.0
 30
0.0
 11
279.0
 21
22.0
 31
0.0
  0
LINE
  5
7E
330
1F
100
AcDbEntity
  8
0
  6
Continuous
 62
     7
370
     0
100
AcDbLine
 10
188.86
 20
34.75
 30
0.0
 11
188.86
 21
22.0
 31
0.0
  0
LINE
  5
7F
330
1F
100
AcDbEntity
  8
0
  6
Continuous
 62
     7
370
     0
100
AcDbLine
 10
188.86
 20
22.0
 30
0.0
 11
174.13
 21
22.0
 31
0.0
  0
LINE
  5
80
330
1F
100
AcDbEntity
  8
0
  6
Continuous
 62
     7
370
     0
100
AcDbLine
 10
292.0
 20
205.0
 30
0.0
 11
5.0
 21
205.0
 31
0.0
  0
LINE
  5
81
330
1F
100
AcDbEntity
  8
0
  6
Continuous
 62
     7
370
     0
100
AcDbLine
 10
5.0
 20
205.0
 30
0.0
 11
5.0
 21
5.0
 31
0.0
  0
LINE
  5
82
330
1F
100
AcDbEntity
  8
0
  6
Continuous
 62
     7
370
     0
100
AcDbLine
 10
5.0
 20
5.0
 30
0.0
 11
292.0
 21
5.0
 31
0.0
  0
LINE
  5
83
330
1F
100
AcDbEntity
  8
0
  6
Continuous
 62
     7
370
     0
100
AcDbLine
 10
174.13
 20
22.0
 30
0.0
 11
174.13
 21
34.75
 31
0.0
  0
LINE
  5
84
330
1F
100
AcDbEntity
  8
0
  6
Continuous
 62
     7
370
     0
100
AcDbLine
 10
174.13
 20
22.0
 30
0.0
 11
159.4
 21
22.0
 31
0.0
  0
LINE
  5
85
330
1F
100
AcDbEntity
  8
0
  6
Continuous
 62
     7
370
     0
100
AcDbLine
 10
279.0
 20
15.4949693602
 30
0.0
 11
279.0
 21
22.0
 31
0.0
  0
LINE
  5
86
330
1F
100
AcDbEntity
  8
0
  6
Continuous
 62
     7
370
     0
100
AcDbLine
 10
159.4
 20
28.375
 30
0.0
 11
174.13
 21
28.375
 31
0.0
  0
LINE
  5
87
330
1F
100
AcDbEntity
  8
0
  6
Continuous
 62
     7
370
     0
100
AcDbLine
 10
174.13
 20
28.375
 30
0.0
 11
188.86
 21
28.375
 31
0.0
  0
LINE
  5
88
330
1F
100
AcDbEntity
  8
0
  6
Continuous
 62
     7
370
     0
100
AcDbLine
 10
188.86
 20
28.375
 30
0.0
 11
203.6
 21
28.375
 31
0.0
  0
LINE
  5
89
330
1F
100
AcDbEntity
  8
0
  6
Continuous
 62
     7
370
     0
100
AcDbLine
 10
159.4
 20
22.0
 30
0.0
 11
159.4
 21
28.375
 31
0.0
  0
LINE
  5
8A
330
1F
100
AcDbEntity
  8
0
  6
Continuous
 62
     7
370
     0
100
AcDbLine
 10
159.4
 20
22.0
 30
0.0
 11
159.4
 21
9.25
 31
0.0
  0
LINE
  5
8B
330
1F
100
AcDbEntity
  8
0
  6
Continuous
 62
     7
370
     0
100
AcDbLine
 10
159.4
 20
5.0
 30
0.0
 11
159.4
 21
9.25
 31
0.0
  0
MTEXT
  5
8D
330
1F
100
AcDbEntity
  8
0
  6
Continuous
 62
     7
370
     0
100
AcDbMText
 10
280.2769372799
 20
19.4324449477
 30
0.0
 40
1.5
 41
0.0
 71
     1
 72
     1
  1
Blattformat
  7
SLDTEXTSTYLE0
 73
     1
 44
1.0
  0
MTEXT
  5
8E
330
1F
100
AcDbEntity
  8
0
  6
Continuous
 62
     7
370
     0
100
AcDbMText
 10
162.3642408927
 20
25.8749304694
 30
0.0
 40
1.5
 41
0.0
 71
     1
 72
     1
  1
Ch. Höfig
  7
SLDTEXTSTYLE0
 73
     1
 44
1.0
  0
MTEXT
  5
8F
330
1F
100
AcDbEntity
  8
0
  6
Continuous
 62
     7
370
     0
100
AcDbMText
 10
166.7761978259
 20
32.2182056354
 30
0.0
 40
1.5
 41
0.0
 71
     2
 72
     1
  1
Name
  7
SLDTEXTSTYLE0
 73
     1
 44
1.0
  0
MTEXT
  5
90
330
1F
100
AcDbEntity
  8
0
  6
Continuous
 62
     7
370
     0
100
AcDbMText
 10
160.4458623088
 20
20.9860562892
 30
0.0
 40
1.5
 41
0.0
 71
     1
 72
     1
  1
Werkstoff:
  7
SLDTEXTSTYLE0
 73
     1
 44
1.0
  0
MTEXT
  5
91
330
1F
100
AcDbEntity
  8
0
  6
Continuous
 62
     7
370
     0
100
AcDbMText
 10
204.8649859034
 20
32.246101463
 30
0.0
 40
1.5
 41
0.0
 71
     1
 72
     1
  1
Artikelnummer
  7
SLDTEXTSTYLE0
 73
     1
 44
1.0
  0
MTEXT
  5
92
330
1F
100
AcDbEntity
  8
0
  6
Continuous
 62
     7
370
     0
100
AcDbMText
 10
204.8739661175
 20
19.868637827
 30
0.0
 40
1.5
 41
0.0
 71
     1
 72
     1
  1
Hersteller
  7
SLDTEXTSTYLE0
 73
     1
 44
1.0
  0
MTEXT
  5
93
330
1F
100
AcDbEntity
  8
0
  6
Continuous
 62
     7
370
     0
100
AcDbMText
 10
204.8739661175
 20
7.9000872745
 30
0.0
 40
1.5
 41
0.0
 71
     1
 72
     1
  1
Massstab: 1:1
  7
SLDTEXTSTYLE0
 73
     1
 44
1.0
  0
MTEXT
  5
95
330
1F
100
AcDbEntity
  8
0
  6
Continuous
 62
     7
370
     0
100
AcDbMText
 10
249.2782944278
 20
7.9000872745
 30
0.0
 40
1.5
 41
0.0
 71
     1
 72
     1
  1
Blatt 1 von 1
  7
SLDTEXTSTYLE1
 73
     1
 44
1.0
  0
MTEXT
  5
96
330
1F
100
AcDbEntity
  8
0
  6
Continuous
 62
     7
370
     0
100
AcDbMText
 10
283.018201252
 20
14.214493588
 30
0.0
 40
2.9104166667
 41
0.0
 71
     1
 72
     1
  1
A4
  7
SLDTEXTSTYLE0
 73
     1
 44
1.0
  0
MTEXT
  5
97
330
1F
100
AcDbEntity
  8
0
  6
Continuous
 62
     7
370
     0
100
AcDbMText
 10
244.7857210818
 20
18.2877193736
 30
0.0
 40
5.2916666667
 41
0.0
 71
     2
 72
     1
  1
Feldmann GmbH
  7
SLDTEXTSTYLE0
 73
     1
 44
1.0
  0
MTEXT
  5
98
330
1F
100
AcDbEntity
  8
0
  6
Continuous
 62
     7
370
     0
100
AcDbMText
 10
196.2543489966
 20
32.2182056354
 30
0.0
 40
1.5
 41
0.0
 71
     2
 72
     1
  1
Datum
  7
SLDTEXTSTYLE0
 73
     1
 44
1.0
  0
MTEXT
  5
99
330
1F
100
AcDbEntity
  8
0
  6
Continuous
 62
     7
370
     0
100
AcDbMText
 10
180.0267509503
 20
25.8749304694
 30
0.0
 40
1.5
 41
0.0
 71
     1
 72
     1
  1
CH
  7
SLDTEXTSTYLE0
 73
     1
 44
1.0
  0
MTEXT
  5
9A
330
1F
100
AcDbEntity
  8
0
  6
Continuous
 62
     7
370
     0
100
AcDbMText
 10
191.3972993064
 20
25.8769670829
 30
0.0
 40
1.5
 41
0.0
 71
     1
 72
     1
  1
13.10.2014
  7
SLDTEXTSTYLE0
 73
     1
 44
1.0
  0
MTEXT
  5
9B
330
1F
100
AcDbEntity
  8
0
  6
Continuous
 62
     7
370
     0
100
AcDbMText
 10
181.5775774918
 20
7.872191447
 30
0.0
 40
1.5
 41
0.0
 71
     2
 72
     1
  1
Gewicht 0.078 kg
  7
SLDTEXTSTYLE0
 73
     1
 44
1.0
  0
MTEXT
  5
9C
330
1F
100
AcDbEntity
  8
0
  6
Continuous
 62
     7
370
     0
100
AcDbMText
 10
181.5165895434
 20
15.452418595
 30
0.0
 40
2.1166666667
 41
0.0
 71
     2
 72
     1
  1
1.0037 (S235JR)
  7
SLDTEXTSTYLE0
 73
     1
 44
1.0
  0
MTEXT
  5
9D
330
1F
100
AcDbEntity
  8
0
  6
Continuous
 62
     7
370
     0
100
AcDbMText
 10
230.5091065513
 20
29.393250804
 30
0.0
 40
4.2333333333
 41
0.0
 71
     2
 72
     1
  1
54270-ST
  7
SLDTEXTSTYLE0
 73
     1
 44
1.0
  0
MTEXT
  5
9E
330
1F
100
AcDbEntity
  8
0
  6
Continuous
 62
     7
370
     0
100
AcDbMText
 10
181.7530017825
 20
32.0187940875
 30
0.0
 40
1.5
 41
0.0
 71
     2
 72
     1
  1
Signatur
  7
SLDTEXTSTYLE0
 73
     1
 44
1.0
  0
LINE
  5
9F
330
1F
100
AcDbEntity
  8
0
  6
Continuous
 62
     7
370
    15
100
AcDbLine
 10
89.7198638762
 20
155.6555791711
 30
0.0
 11
89.7198638762
 21
158.1555791152
 31
0.0
  0
LINE
  5
A0
330
1F
100
AcDbEntity
  8
0
  6
Continuous
 62
     7
370
    15
100
AcDbLine
 10
19.7198635782
 20
158.1555791152
 30
0.0
 11
19.7198635782
 21
155.6555791711
 31
0.0
  0
ARC
  5
A1
330
1F
100
AcDbEntity
  8
0
  6
Continuous
 62
     7
370
    15
100
AcDbCircle
 10
54.7198637272
 20
80.2389125044
 30
0.0
 40
85.41666666666723
100
AcDbArc
 50
65.810485846
 51
114.189514154
  0
LINE
  5
A2
330
1F
100
AcDbEntity
  8
0
  6
Continuous
 62
     7
370
    15
100
AcDbLine
 10
89.7198638762
 20
155.6555791711
 30
0.0
 11
19.7198635782
 21
155.6555791711
 31
0.0
  0
LINE
  5
A3
330
1F
100
AcDbEntity
  8
0
  6
Continuous
 62
     7
370
    15
100
AcDbLine
 10
89.7198638762
 20
158.1555791152
 30
0.0
 11
19.7198635782
 21
158.1555791152
 31
0.0
  0
LINE
  5
A4
330
1F
100
AcDbEntity
  8
0
  6
Continuous
 62
     7
370
    15
100
AcDbLine
 10
184.641649211
 20
155.6555791711
 30
0.0
 11
184.641649211
 21
158.1555791152
 31
0.0
  0
LINE
  5
A5
330
1F
100
AcDbEntity
  8
0
  6
Continuous
 62
     7
370
    15
100
AcDbLine
 10
114.6416489129
 20
158.1555791152
 30
0.0
 11
114.6416489129
 21
155.6555791711
 31
0.0
  0
ARC
  5
A6
330
1F
100
AcDbEntity
  8
0
  6
Continuous
 62
     7
370
    15
100
AcDbCircle
 10
149.6416490619
 20
80.2389125044
 30
0.0
 40
85.41666666666723
100
AcDbArc
 50
65.810485846
 51
114.189514154
  0
LINE
  5
A7
330
1F
100
AcDbEntity
  8
0
  6
Continuous
 62
     7
370
    15
100
AcDbLine
 10
184.641649211
 20
155.6555791711
 30
0.0
 11
114.6416489129
 21
155.6555791711
 31
0.0
  0
LINE
  5
A8
330
1F
100
AcDbEntity
  8
0
  6
Continuous
 62
     7
370
    15
100
AcDbLine
 10
184.641649211
 20
158.1555791152
 30
0.0
 11
114.6416489129
 21
158.1555791152
 31
0.0
  0
LINE
  5
A9
330
1F
100
AcDbEntity
  8
0
  6
PHANTOM
 62
     7
370
    30
100
AcDbLine
 10
149.6416490619
 20
166.8555791711
 30
0.0
 11
149.6416490619
 21
154.4555791711
 31
0.0
  0
LINE
  5
AA
330
1F
100
AcDbEntity
  8
0
  6
Continuous
 62
     7
370
    30
100
AcDbLine
 10
162.3416490619
 20
164.8555791711
 30
0.0
 11
149.6416490619
 21
164.8555791711
 31
0.0
  0
SOLID
  5
AB
330
1F
100
AcDbEntity
  8
0
  6
Continuous
 62
     7
370
    30
100
AcDbTrace
 10
149.6416490619
 20
164.8555791711
 30
0.0
 11
155.9916490619
 21
163.8395791711
 31
0.0
 12
155.9916490619
 22
165.8715791711
 32
0.0
 13
155.9916490619
 23
165.8715791711
 33
0.0
  0
LINE
  5
AC
330
1F
100
AcDbEntity
  8
0
  6
Continuous
 62
     7
370
    30
100
AcDbLine
 10
162.3416490619
 20
156.4555791711
 30
0.0
 11
149.6416490619
 21
156.4555791711
 31
0.0
  0
SOLID
  5
AD
330
1F
100
AcDbEntity
  8
0
  6
Continuous
 62
     7
370
    30
100
AcDbTrace
 10
149.6416490619
 20
156.4555791711
 30
0.0
 11
155.9916490619
 21
155.4395791711
 31
0.0
 12
155.9916490619
 22
157.4715791711
 32
0.0
 13
155.9916490619
 23
157.4715791711
 33
0.0
  0
MTEXT
  5
AE
330
1F
100
AcDbEntity
  8
0
  6
Continuous
 62
     7
100
AcDbMText
 10
158.8907755232
 20
170.412031881
 30
0.0
 40
3.5
 41
0.0
 71
     1
 72
     1
  1
A
  7
SLDTEXTSTYLE0
 73
     1
 44
1.0
  0
MTEXT
  5
AF
330
1F
100
AcDbEntity
  8
0
  6
Continuous
 62
     7
100
AcDbMText
 10
158.8907755232
 20
162.012031881
 30
0.0
 40
3.5
 41
0.0
 71
     1
 72
     1
  1
A
  7
SLDTEXTSTYLE0
 73
     1
 44
1.0
  0
CIRCLE
  5
B0
330
1F
100
AcDbEntity
  8
0
  6
Continuous
 62
     7
370
    15
100
AcDbCircle
 10
54.7198637272
 20
88.0415515409
 30
0.0
 40
35.00000000000006
  0
INSERT
  5
BC
330
1F
100
AcDbEntity
  8
0
  6
Continuous
 62
     7
370
     0
100
AcDbBlockReference
  2
SW_CENTERMARKSYMBOL_0
 10
54.7198637272
 20
88.0415515409
 30
0.0
  0
CIRCLE
  5
BD
330
1F
100
AcDbEntity
  8
0
  6
Continuous
 62
     7
370
    15
100
AcDbCircle
 10
153.5113621331
 20
88.0415515409
 30
0.0
 40
34.46012188022567
  0
CIRCLE
  5
BE
330
1F
100
AcDbEntity
  8
0
  6
Continuous
 62
     7
370
    15
100
AcDbCircle
 10
153.5113621331
 20
88.0415515409
 30
0.0
 40
35.00000000000014
  0
LINE
  5
BF
330
1F
100
AcDbEntity
  8
0
  6
Continuous
 62
     7
370
    15
100
AcDbLine
 10
147.4310336463
 20
89.3983891134
 30
0.0
 11
147.4310336463
 21
88.0415515409
 31
0.0
  0
LINE
  5
C0
330
1F
100
AcDbEntity
  8
0
  6
Continuous
 62
     7
370
    15
100
AcDbLine
 10
147.3123105071
 20
89.3983891134
 30
0.0
 11
147.4310336463
 21
89.3983891134
 31
0.0
  0
LINE
  5
C1
330
1F
100
AcDbEntity
  8
0
  6
Continuous
 62
     7
370
    15
100
AcDbLine
 10
147.3123105071
 20
88.0415515409
 30
0.0
 11
147.3123105071
 21
89.3983891134
 31
0.0
  0
LINE
  5
C2
330
1F
100
AcDbEntity
  8
0
  6
Continuous
 62
     7
370
    15
100
AcDbLine
 10
147.4310336463
 20
88.0415515409
 30
0.0
 11
147.3123105071
 21
88.0415515409
 31
0.0
  0
LINE
  5
C3
330
1F
100
AcDbEntity
  8
0
  6
Continuous
 62
     7
370
    15
100
AcDbLine
 10
148.6861081622
 20
89.3983891134
 30
0.0
 11
148.6861081622
 21
88.0415515409
 31
0.0
  0
LINE
  5
C4
330
1F
100
AcDbEntity
  8
0
  6
Continuous
 62
     7
370
    15
100
AcDbLine
 10
148.5673850231
 20
89.3983891134
 30
0.0
 11
148.6861081622
 21
89.3983891134
 31
0.0
  0
LINE
  5
C5
330
1F
100
AcDbEntity
  8
0
  6
Continuous
 62
     7
370
    15
100
AcDbLine
 10
148.5673850231
 20
88.8212031702
 30
0.0
 11
148.5673850231
 21
89.3983891134
 31
0.0
  0
SPLINE
  5
C6
330
1F
100
AcDbEntity
  8
0
  6
Continuous
 62
     7
370
    15
100
AcDbSpline
210
0.0
220
0.0
230
1.0
 70
     8
 71
     3
 72
    13
 73
     9
 74
     0
 42
0.000000001
 43
0.00000001
 40
0.0
 40
0.0
 40
0.0
 40
0.0
 40
0.1258238373450347
 40
0.2514182010241621
 40
0.5008667059271958
 40
0.7495557850899538
 40
0.8675254540931152
 40
1.0
 40
1.0
 40
1.0
 40
1.0
 10
148.5673851032298
 20
88.82120315015534
 30
0.0
 10
148.5554660103698
 20
88.83632671296627
 30
0.0
 10
148.5316495623268
 20
88.86654625669682
 30
0.0
 10
148.4785682857305
 20
88.92198481224771
 30
0.0
 10
148.3997681339123
 20
88.97772808974703
 30
0.0
 10
148.3101981751249
 20
89.01040187661553
 30
0.0
 10
148.2347072185446
 20
89.0223116034
 30
0.0
 10
148.196463561605
 20
89.02423919192425
 30
0.0
 10
148.1762342618836
 20
89.02525880587116
 30
0.0
  0
SPLINE
  5
C7
330
1F
100
AcDbEntity
  8
0
  6
Continuous
 62
     7
370
    15
100
AcDbSpline
210
0.0
220
0.0
230
1.0
 70
     8
 71
     3
 72
    14
 73
    10
 74
     0
 42
0.000000001
 43
0.00000001
 40
0.0
 40
0.0
 40
0.0
 40
0.0
 40
0.0631836270251562
 40
0.1262873318460878
 40
0.2512519500204887
 40
0.5006604288167674
 40
0.749979847365762
 40
0.8746967130556229
 40
1.0
 40
1.0
 40
1.0
 40
1.0
 10
148.1762342618836
 20
89.02525880587116
 30
0.0
 10
148.1596739511336
 20
89.02467427413384
 30
0.0
 10
148.1265742770942
 20
89.02350595004481
 30
0.0
 10
148.0610652577741
 20
89.01558391331882
 30
0.0
 10
147.9500913799249
 20
88.98309452018533
 30
0.0
 10
147.8110178114663
 20
88.88948694784617
 30
0.0
 10
147.7128053077973
 20
88.75308335747943
 30
0.0
 10
147.674376736643
 20
88.62626391969035
 30
0.0
 10
147.6704487756864
 20
88.56052271300848
 30
0.0
 10
147.6684801886998
 20
88.52757501180065
 30
0.0
  0
SPLINE
  5
C8
330
1F
100
AcDbEntity
  8
0
  6
Continuous
 62
     7
370
    15
100
AcDbSpline
210
0.0
220
0.0
230
1.0
 70
     8
 71
     3
 72
    15
 73
    11
 74
     0
 42
0.000000001
 43
0.00000001
 40
0.0
 40
0.0
 40
0.0
 40
0.0
 40
0.0631357489204404
 40
0.1260236813740739
 40
0.2510380907837258
 40
0.5001449010115896
 40
0.6648095957747845
 40
0.8289963088750053
 40
0.9108125989063636
 40
0.9999999999999999
 40
0.9999999999999999
 40
0.9999999999999999
 40
0.9999999999999999
 10
147.6684801886998
 20
88.52757501180065
 30
0.0
 10
147.669029220124
 20
88.51093254334145
 30
0.0
 10
147.6701251279488
 20
88.47771293039251
 30
0.0
 10
147.678680151817
 20
88.4119773160138
 30
0.0
 10
147.7115349025498
 20
88.30066153540967
 30
0.0
 10
147.795392782109
 20
88.18107084921549
 30
0.0
 10
147.9158281288414
 20
88.08614050129681
 30
0.0
 10
148.0170935403822
 20
88.04390877977916
 30
0.0
 10
148.1041075709979
 20
88.02813897553243
 30
0.0
 10
148.1490725580455
 20
88.02580720931026
 30
0.0
 10
148.1725241590524
 20
88.02459107082842
 30
0.0
  0
SPLINE
  5
C9
330
1F
100
AcDbEntity
  8
0
  6
Continuous
 62
     7
370
    15
100
AcDbSpline
210
0.0
220
0.0
230
1.0
 70
     8
 71
     3
 72
    14
 73
    10
 74
     0
 42
0.000000001
 43
0.00000001
 40
0.0
 40
0.0
 40
0.0
 40
0.0
 40
0.1253954885751083
 40
0.2505491320636844
 40
0.309984506774131
 40
0.5000333855245134
 40
0.7491696009967456
 40
0.8744590381853464
 40
1.0
 40
1.0
 40
1.0
 40
1.0
 10
148.1725241590524
 20
88.02459107082842
 30
0.0
 10
148.1913636004611
 20
88.02509313428772
 30
0.0
 10
148.2290061484278
 20
88.02609629289731
 30
0.0
 10
148.275175160504
 20
88.03309978125363
 30
0.0
 10
148.3300225523877
 20
88.0457250121669
 30
0.0
 10
148.4011013685686
 20
88.07056373637201
 30
0.0
 10
148.4743130177455
 20
88.11544293127353
 30
0.0
 10
148.5296083398713
 20
88.16659560162086
 30
0.0
 10
148.554784433519
 20
88.19470325583278
 30
0.0
 10
148.5673851032298
 20
88.20877117566282
 30
0.0
  0
LINE
  5
CA
330
1F
100
AcDbEntity
  8
0
  6
Continuous
 62
     7
370
    15
100
AcDbLine
 10
148.5673850231
 20
88.0415515409
 30
0.0
 11
148.5673850231
 21
88.2087711786
 31
0.0
  0
LINE
  5
CB
330
1F
100
AcDbEntity
  8
0
  6
Continuous
 62
     7
370
    15
100
AcDbLine
 10
148.6861081622
 20
88.0415515409
 30
0.0
 11
148.5673850231
 21
88.0415515409
 31
0.0
  0
LINE
  5
CC
330
1F
100
AcDbEntity
  8
0
  6
Continuous
 62
     7
370
    15
100
AcDbLine
 10
152.7735816609
 20
88.5352602478
 30
0.0
 11
152.7735816609
 21
88.0415515409
 31
0.0
  0
SPLINE
  5
CD
330
1F
100
AcDbEntity
  8
0
  6
Continuous
 62
     7
370
    15
100
AcDbSpline
210
0.0
220
0.0
230
1.0
 70
     8
 71
     3
 72
    15
 73
    11
 74
     0
 42
0.000000001
 43
0.00000001
 40
0.0
 40
0.0
 40
0.0
 40
0.0
 40
0.1280955268488
 40
0.2507333116974629
 40
0.375743522068558
 40
0.5006226760609707
 40
0.6256221278744875
 40
0.7505591779055293
 40
0.8750578838055227
 40
0.9999999999999999
 40
0.9999999999999999
 40
0.9999999999999999
 40
0.9999999999999999
 10
152.7735816844263
 20
88.53526022480813
 30
0.0
 10
152.7732218382133
 20
88.56488316290526
 30
0.0
 10
152.7725174776872
 20
88.62286690015213
 30
0.0
 10
152.7643105507431
 20
88.7094103089513
 30
0.0
 10
152.7475478569899
 20
88.79429516498574
 30
0.0
 10
152.7107239041655
 20
88.87393243327571
 30
0.0
 10
152.6534981638112
 20
88.9404165248307
 30
0.0
 10
152.5814239254419
 20
88.98989428954532
 30
0.0
 10
152.498774134932
 20
89.01950346888242
 30
0.0
 10
152.4410333691232
 20
89.02333808804659
 30
0.0
 10
152.4121116657297
 20
89.02525880587116
 30
0.0
  0
SPLINE
  5
CE
330
1F
100
AcDbEntity
  8
0
  6
Continuous
 62
     7
370
    15
100
AcDbSpline
210
0.0
220
0.0
230
1.0
 70
     8
 71
     3
 72
    14
 73
    10
 74
     0
 42
0.000000001
 43
0.00000001
 40
0.0
 40
0.0
 40
0.0
 40
0.0
 40
0.063109191126457
 40
0.1256830291291573
 40
0.2507912605613536
 40
0.4999009487893639
 40
0.7491589229220461
 40
0.8744799349198661
 40
1.0
 40
1.0
 40
1.0
 40
1.0
 10
152.4121116657297
 20
89.02525880587116
 30
0.0
 10
152.4030593510491
 20
89.02497330679886
 30
0.0
 10
152.3850315121656
 20
89.02440473053318
 30
0.0
 10
152.3491119162373
 20
89.02183417112907
 30
0.0
 10
152.2872040832613
 20
89.01112531267667
 30
0.0
 10
152.2022437420055
 20
88.97991831986471
 30
0.0
 10
152.1284368958476
 20
88.9274198432686
 30
0.0
 10
152.0782867366142
 20
88.87591770606507
 30
0.0
 10
152.0556225543702
 20
88.84792897391848
 30
0.0
 10
152.0442814707511
 20
88.83392350271944
 30
0.0
  0
LINE
  5
CF
330
1F
100
AcDbEntity
  8
0
  6
Continuous
 62
     7
370
    15
100
AcDbLine
 10
152.0442814627
 20
89.0082983084
 30
0.0
 11
152.0442814627
 21
88.8339235232
 31
0.0
  0
LINE
  5
D0
330
1F
100
AcDbEntity
  8
0
  6
Continuous
 62
     7
370
    15
100
AcDbLine
 10
151.9255582072
 20
89.0082983084
 30
0.0
 11
152.0442814627
 21
89.0082983084
 31
0.0
  0
SPLINE
  5
D1
330
1F
100
AcDbEntity
  8
0
  6
Continuous
 62
     7
370
    15
100
AcDbSpline
210
0.0
220
0.0
230
1.0
 70
    24
 71
     3
 72
    10
 73
     6
 74
     0
 42
0.000000001
 43
0.00000001
 40
0.0
 40
0.0
 40
0.0
 40
0.0
 40
0.4999997343862266
 40
0.7499998671931151
 40
1.0
 40
1.0
 40
1.0
 40
1.0
 10
151.9255581801528
 20
89.0082983357857
 30
0.0
 10
151.9255581801528
 20
88.84717809761662
 30
0.0
 10
151.9255581801528
 20
88.60549765477147
 30
0.0
 10
151.9255581801528
 20
88.28324360979327
 30
0.0
 10
151.9255581801528
 20
88.12211556387369
 30
0.0
 10
151.9255581801528
 20
88.04155154091389
 30
0.0
  0
LINE
  5
D2
330
1F
100
AcDbEntity
  8
0
  6
Continuous
 62
     7
370
    15
100
AcDbLine
 10
152.0442814627
 20
88.0415515409
 30
0.0
 11
151.9255582072
 21
88.0415515409
 31
0.0
  0
LINE
  5
D3
330
1F
100
AcDbEntity
  8
0
  6
Continuous
 62
     7
370
    15
100
AcDbLine
 10
152.0442814627
 20
88.3910962281
 30
0.0
 11
152.0442814627
 21
88.0415515409
 31
0.0
  0
SPLINE
  5
D4
330
1F
100
AcDbEntity
  8
0
  6
Continuous
 62
     7
370
    15
100
AcDbSpline
210
0.0
220
0.0
230
1.0
 70
     8
 71
     3
 72
    10
 73
     6
 74
     0
 42
0.000000001
 43
0.00000001
 40
0.0
 40
0.0
 40
0.0
 40
0.0
 40
0.5001106365372397
 40
0.7501595261857175
 40
1.0
 40
1.0
 40
1.0
 40
1.0
 10
152.0442814707511
 20
88.39109622908163
 30
0.0
 10
152.0447998782125
 20
88.43451236886989
 30
0.0
 10
152.0455774827407
 20
88.49963602046402
 30
0.0
 10
152.0506701084145
 20
88.58646433128071
 30
0.0
 10
152.0586024569081
 20
88.62918632764789
 30
0.0
 10
152.062566977562
 20
88.65053841992031
 30
0.0
  0
SPLINE
  5
D5
330
1F
100
AcDbEntity
  8
0
  6
Continuous
 62
     7
370
    15
100
AcDbSpline
210
0.0
220
0.0
230
1.0
 70
     8
 71
     3
 72
    13
 73
     9
 74
     0
 42
0.000000001
 43
0.00000001
 40
0.0
 40
0.0
 40
0.0
 40
0.0
 40
0.1324876577093156
 40
0.2509611965946248
 40
0.5009558392885266
 40
0.7501935542947893
 40
0.8691574693291054
 40
1.0
 40
1.0
 40
1.0
 40
1.0
 10
152.062566977562
 20
88.65053841992031
 30
0.0
 10
152.0687573552113
 20
88.66929101890962
 30
0.0
 10
152.0804833122485
 20
88.70481262720875
 30
0.0
 10
152.1169660671016
 20
88.77029101233173
 30
0.0
 10
152.1813603526016
 20
88.83790608274515
 30
0.0
 10
152.2624304224332
 20
88.88473329229197
 30
0.0
 10
152.3347950651618
 20
88.90335962420902
 30
0.0
 10
152.3719698474654
 20
88.90544384906669
 30
0.0
 10
152.3914410928131
 20
88.90653551527286
 30
0.0
  0
SPLINE
  5
D6
330
1F
100
AcDbEntity
  8
0
  6
Continuous
 62
     7
370
    15
100
AcDbSpline
210
0.0
220
0.0
230
1.0
 70
     8
 71
     3
 72
    12
 73
     8
 74
     0
 42
0.000000001
 43
0.00000001
 40
0.0
 40
0.0
 40
0.0
 40
0.0
 40
0.125620367123888
 40
0.2509675275273109
 40
0.500980362217717
 40
0.7502890287479433
 40
1.0
 40
1.0
 40
1.0
 40
1.0
 10
152.3914410928131
 20
88.90653551527286
 30
0.0
 10
152.4057600627897
 20
88.90590472134049
 30
0.0
 10
152.4343668609867
 20
88.9046445053643
 30
0.0
 10
152.4908517553647
 20
88.89524709684554
 30
0.0
 10
152.5575896775313
 20
88.86534085990142
 30
0.0
 10
152.6157348898975
 20
88.79854916549537
 30
0.0
 10
152.6324491413698
 20
88.7437046212101
 30
0.0
 10
152.6408130045385
 20
88.7162602415015
 30
0.0
  0
SPLINE
  5
D7
330
1F
100
AcDbEntity
  8
0
  6
Continuous
 62
     7
370
    15
100
AcDbSpline
210
0.0
220
0.0
230
1.0
 70
     8
 71
     3
 72
    10
 73
     6
 74
     0
 42
0.000000001
 43
0.00000001
 40
0.0
 40
0.0
 40
0.0
 40
0.0
 40
0.235045556071574
 40
0.4997135220485761
 40
1.0
 40
1.0
 40
1.0
 40
1.0
 10
152.6408130045385
 20
88.7162602415015
 30
0.0
 10
152.6437804213866
 20
88.69920927512119
 30
0.0
 10
152.6500892338115
 20
88.66295843674482
 30
0.0
 10
152.6542016169265
 20
88.58938035281365
 30
0.0
 10
152.6545986989374
 20
88.53310722925418
 30
0.0
 10
152.6548583938281
 20
88.49630414508056
 30
0.0
  0
LINE
  5
D8
330
1F
100
AcDbEntity
  8
0
  6
Continuous
 62
     7
370
    15
100
AcDbLine
 10
152.6548584053
 20
88.0415515409
 30
0.0
 11
152.6548584053
 21
88.4963041596
 31
0.0
  0
LINE
  5
D9
330
1F
100
AcDbEntity
  8
0
  6
Continuous
 62
     7
370
    15
100
AcDbLine
 10
152.7735816609
 20
88.0415515409
 30
0.0
 11
152.6548584053
 21
88.0415515409
 31
0.0
  0
LINE
  5
DA
330
1F
100
AcDbEntity
  8
0
  6
Continuous
 62
     7
370
    15
100
AcDbLine
 10
153.163672495
 20
88.3910962281
 30
0.0
 11
153.163672495
 21
88.0415515409
 31
0.0
  0
SPLINE
  5
DB
330
1F
100
AcDbEntity
  8
0
  6
Continuous
 62
     7
370
    15
100
AcDbSpline
210
0.0
220
0.0
230
1.0
 70
     8
 71
     3
 72
    10
 73
     6
 74
     0
 42
0.000000001
 43
0.00000001
 40
0.0
 40
0.0
 40
0.0
 40
0.0
 40
0.5001105823507193
 40
0.7501594763471466
 40
1.0
 40
1.0
 40
1.0
 40
1.0
 10
153.1636724963921
 20
88.39109622908163
 30
0.0
 10
153.1641909038572
 20
88.43451255055109
 30
0.0
 10
153.1649685084235
 20
88.49963647739416
 30
0.0
 10
153.1700611963714
 20
88.58646482023012
 30
0.0
 10
153.1779935030746
 20
88.62918648928897
 30
0.0
 10
153.1819580032031
 20
88.65053841992031
 30
0.0
  0
SPLINE
  5
DC
330
1F
100
AcDbEntity
  8
0
  6
Continuous
 62
     7
370
    15
100
AcDbSpline
210
0.0
220
0.0
230
1.0
 70
     8
 71
     3
 72
    13
 73
     9
 74
     0
 42
0.000000001
 43
0.00000001
 40
0.0
 40
0.0
 40
0.0
 40
0.0
 40
0.1368677056427808
 40
0.2509503312970454
 40
0.500951807226979
 40
0.750196466245787
 40
0.8669350739787501
 40
0.9999999999999999
 40
0.9999999999999999
 40
0.9999999999999999
 40
0.9999999999999999
 10
153.1819580032031
 20
88.65053841992031
 30
0.0
 10
153.1883990604733
 20
88.6698965285962
 30
0.0
 10
153.2002088986545
 20
88.7053901007481
 30
0.0
 10
153.236773974801
 20
88.77078623712848
 30
0.0
 10
153.3007605264492
 20
88.83788660606821
 30
0.0
 10
153.381516821737
 20
88.88458589098552
 30
0.0
 10
153.4538549556728
 20
88.90326672227614
 30
0.0
 10
153.4910298554136
 20
88.90539945486574
 30
0.0
 10
153.5108321184541
 20
88.90653551527286
 30
0.0
  0
SPLINE
  5
DD
330
1F
100
AcDbEntity
  8
0
  6
Continuous
 62
     7
370
    15
100
AcDbSpline
210
0.0
220
0.0
230
1.0
 70
     8
 71
     3
 72
    13
 73
     9
 74
     0
 42
0.000000001
 43
0.00000001
 40
0.0
 40
0.0
 40
0.0
 40
0.0
 40
0.1255585046769672
 40
0.2508439493895082
 40
0.5007336219930801
 40
0.7499196648320644
 40
0.8748470413178719
 40
1.0
 40
1.0
 40
1.0
 40
1.0
 10
153.5108321184541
 20
88.90653551527286
 30
0.0
 10
153.5251521640893
 20
88.90590477627022
 30
0.0
 10
153.5537611126572
 20
88.90464466997267
 30
0.0
 10
153.6102277340109
 20
88.8952451479233
 30
0.0
 10
153.6771147551564
 20
88.86535226595821
 30
0.0
 10
153.7250704529084
 20
88.80962909596643
 30
0.0
 10
153.7483377889205
 20
88.75742444867451
 30
0.0
 10
153.7562462385168
 20
88.72998989290488
 30
0.0
 10
153.7602040301795
 20
88.7162602415015
 30
0.0
  0
SPLINE
  5
DE
330
1F
100
AcDbEntity
  8
0
  6
Continuous
 62
     7
370
    15
100
AcDbSpline
210
0.0
220
0.0
230
1.0
 70
     8
 71
     3
 72
    10
 73
     6
 74
     0
 42
0.000000001
 43
0.00000001
 40
0.0
 40
0.0
 40
0.0
 40
0.0
 40
0.249656662596723
 40
0.4997222414346814
 40
0.9999999999999999
 40
0.9999999999999999
 40
0.9999999999999999
 40
0.9999999999999999
 10
153.7602040301795
 20
88.7162602415015
 30
0.0
 10
153.7633558891004
 20
88.69814645299617
 30
0.0
 10
153.7696647694173
 20
88.6618892071506
 30
0.0
 10
153.7735399667911
 20
88.58830344764684
 30
0.0
 10
153.7739656217651
 20
88.5331060229841
 30
0.0
 10
153.7742494194691
 20
88.49630414508057
 30
0.0
  0
LINE
  5
DF
330
1F
100
AcDbEntity
  8
0
  6
Continuous
 62
     7
370
    15
100
AcDbLine
 10
153.7742494085
 20
88.0415515409
 30
0.0
 11
153.7742494085
 21
88.4963041596
 31
0.0
  0
LINE
  5
E0
330
1F
100
AcDbEntity
  8
0
  6
Continuous
 62
     7
370
    15
100
AcDbLine
 10
153.8929727222
 20
88.0415515409
 30
0.0
 11
153.7742494085
 21
88.0415515409
 31
0.0
  0
SPLINE
  5
E1
330
1F
100
AcDbEntity
  8
0
  6
Continuous
 62
     7
370
    15
100
AcDbSpline
210
0.0
220
0.0
230
1.0
 70
    24
 71
     3
 72
    10
 73
     6
 74
     0
 42
0.000000001
 43
0.00000001
 40
0.0
 40
0.0
 40
0.0
 40
0.0
 40
0.2500000346236029
 40
0.5000000692472174
 40
1.0
 40
1.0
 40
1.0
 40
1.0
 10
153.8929727100674
 20
88.04155154091389
 30
0.0
 10
153.8929727100674
 20
88.08269416956406
 30
0.0
 10
153.8929727100674
 20
88.1649794268644
 30
0.0
 10
153.8929727100674
 20
88.32954966895059
 30
0.0
 10
153.8929727100674
 20
88.45297600702347
 30
0.0
 10
153.8929727100674
 20
88.53526022480813
 30
0.0
  0
SPLINE
  5
E2
330
1F
100
AcDbEntity
  8
0
  6
Continuous
 62
     7
370
    15
100
AcDbSpline
210
0.0
220
0.0
230
1.0
 70
     8
 71
     3
 72
    15
 73
    11
 74
     0
 42
0.000000001
 43
0.00000001
 40
0.0
 40
0.0
 40
0.0
 40
0.0
 40
0.1256677117580021
 40
0.2512484510934659
 40
0.3013813238661937
 40
0.3766055201412229
 40
0.5017412374301198
 40
0.7500476976378719
 40
0.8748017450685769
 40
1.0
 40
1.0
 40
1.0
 40
1.0
 10
153.8929727100674
 20
88.53526022480813
 30
0.0
 10
153.8926296118656
 20
88.5642528293312
 30
0.0
 10
153.8919436529143
 20
88.62221797310349
 30
0.0
 10
153.8855330252943
 20
88.6915845833918
 30
0.0
 10
153.8757806518061
 20
88.74865534029122
 30
0.0
 10
153.8621069141262
 20
88.80492890815887
 30
0.0
 10
153.8181905778028
 20
88.8998596310284
 30
0.0
 10
153.7277129512615
 20
88.98043070063328
 30
0.0
 10
153.6182097682956
 20
89.01945784248697
 30
0.0
 10
153.5604392729915
 20
89.02332286181215
 30
0.0
 10
153.5315026913708
 20
89.02525880587116
 30
0.0
  0
SPLINE
  5
E3
330
1F
100
AcDbEntity
  8
0
  6
Continuous
 62
     7
370
    15
100
AcDbSpline
210
0.0
220
0.0
230
1.0
 70
     8
 71
     3
 72
    14
 73
    10
 74
     0
 42
0.000000001
 43
0.00000001
 40
0.0
 40
0.0
 40
0.0
 40
0.0
 40
0.0631092495693777
 40
0.125682494968509
 40
0.2507908782765317
 40
0.4999002416303612
 40
0.7491585020084315
 40
0.8744797863542463
 40
1.0
 40
1.0
 40
1.0
 40
1.0
 10
153.5315026913708
 20
89.02525880587116
 30
0.0
 10
153.5224499238416
 20
89.02497331484597
 30
0.0
 10
153.5044212764216
 20
89.0244047575492
 30
0.0
 10
153.4685000564704
 20
89.02183351696655
 30
0.0
 10
153.4065901564936
 20
89.01112387105425
 30
0.0
 10
153.3216289225863
 20
88.97991517588027
 30
0.0
 10
153.2478243857126
 20
88.92741664540203
 30
0.0
 10
153.1976763861873
 20
88.8759160491962
 30
0.0
 10
153.1750131173424
 20
88.84792841672189
 30
0.0
 10
153.1636724963921
 20
88.83392350271946
 30
0.0
  0
LINE
  5
E4
330
1F
100
AcDbEntity
  8
0
  6
Continuous
 62
     7
370
    15
100
AcDbLine
 10
153.163672495
 20
89.0082983084
 30
0.0
 11
153.163672495
 21
88.8339235232
 31
0.0
  0
LINE
  5
E5
330
1F
100
AcDbEntity
  8
0
  6
Continuous
 62
     7
370
    15
100
AcDbLine
 10
153.0449492103
 20
89.0082983084
 30
0.0
 11
153.163672495
 21
89.0082983084
 31
0.0
  0
LINE
  5
E6
330
1F
100
AcDbEntity
  8
0
  6
Continuous
 62
     7
370
    15
100
AcDbLine
 10
153.0449492103
 20
88.0415515409
 30
0.0
 11
153.0449492103
 21
89.0082983084
 31
0.0
  0
LINE
  5
E7
330
1F
100
AcDbEntity
  8
0
  6
Continuous
 62
     7
370
    15
100
AcDbLine
 10
153.163672495
 20
88.0415515409
 30
0.0
 11
153.0449492103
 21
88.0415515409
 31
0.0
  0
SPLINE
  5
E8
330
1F
100
AcDbEntity
  8
0
  6
Continuous
 62
     7
370
    15
100
AcDbSpline
210
0.0
220
0.0
230
1.0
 70
     8
 71
     3
 72
    14
 73
    10
 74
     0
 42
0.000000001
 43
0.00000001
 40
0.0
 40
0.0
 40
0.0
 40
0.0
 40
0.063183104770967
 40
0.1260220723322576
 40
0.2516072918307324
 40
0.5013667426536734
 40
0.7500681481543723
 40
0.8747697927715125
 40
1.0
 40
1.0
 40
1.0
 40
1.0
 10
154.6053124536571
 20
88.38076094262328
 30
0.0
 10
154.607262313498
 20
88.36823016019434
 30
0.0
 10
154.6111514129462
 20
88.34323684631141
 30
0.0
 10
154.6229566365268
 20
88.2940994616617
 30
0.0
 10
154.6534158047348
 20
88.21120688048467
 30
0.0
 10
154.728548579345
 20
88.10748046347193
 30
0.0
 10
154.8360677245924
 20
88.03713218697699
 30
0.0
 10
154.9336083299692
 20
88.01143811783848
 30
0.0
 10
154.9837798354542
 20
88.00890156123421
 30
0.0
 10
155.0089186402223
 20
88.00763060074296
 30
0.0
  0
SPLINE
  5
E9
330
1F
100
AcDbEntity
  8
0
  6
Continuous
 62
     7
370
    15
100
AcDbSpline
210
0.0
220
0.0
230
1.0
 70
     8
 71
     3
 72
    16
 73
    12
 74
     0
 42
0.000000001
 43
0.00000001
 40
0.0
 40
0.0
 40
0.0
 40
0.0
 40
0.0646195833919914
 40
0.1258976827597499
 40
0.2511375830705169
 40
0.3758172397972503
 40
0.5006638187957807
 40
0.6252958838094361
 40
0.7502190119560028
 40
0.8669175227724489
 40
1.0
 40
1.0
 40
1.0
 40
1.0
 10
155.0089186402223
 20
88.00763060074296
 30
0.0
 10
155.0247284766936
 20
88.00805676929569
 30
0.0
 10
155.055530621679
 20
88.00888706918994
 30
0.0
 10
155.1165922357325
 20
88.0162625082029
 30
0.0
 10
155.1907660285854
 20
88.03571129286497
 30
0.0
 10
155.2729728545632
 20
88.07791710553433
 30
0.0
 10
155.343958099679
 20
88.13695519130239
 30
0.0
 10
155.3997882539521
 20
88.21039937183976
 30
0.0
 10
155.4400297000988
 20
88.29102054279161
 30
0.0
 10
155.4644985896471
 20
88.38008198016398
 30
0.0
 10
155.4682811124723
 20
88.44120981451312
 30
0.0
 10
155.4702964280161
 20
88.4737785207483
 30
0.0
  0
SPLINE
  5
EA
330
1F
100
AcDbEntity
  8
0
  6
Continuous
 62
     7
370
    15
100
AcDbSpline
210
0.0
220
0.0
230
1.0
 70
     8
 71
     3
 72
    13
 73
     9
 74
     0
 42
0.000000001
 43
0.00000001
 40
0.0
 40
0.0
 40
0.0
 40
0.0
 40
0.1261671681223165
 40
0.2516931341713516
 40
0.50121410728204
 40
0.7500352638041718
 40
0.8747029607702467
 40
1.0
 40
1.0
 40
1.0
 40
1.0
 10
155.4702964280161
 20
88.4737785207483
 30
0.0
 10
155.4691050606233
 20
88.50200849092835
 30
0.0
 10
155.4667283805605
 20
88.55832496198752
 30
0.0
 10
155.4394154657019
 20
88.66776951425561
 30
0.0
 10
155.3645079961646
 20
88.79023838010623
 30
0.0
 10
155.2461635433576
 20
88.87188063330821
 30
0.0
 10
155.1379249469733
 20
88.9023107429784
 30
0.0
 10
155.0820018412344
 20
88.90512489608759
 30
0.0
 10
155.0539698888868
 20
88.90653551527286
 30
0.0
  0
SPLINE
  5
EB
330
1F
100
AcDbEntity
  8
0
  6
Continuous
 62
     7
370
    15
100
AcDbSpline
210
0.0
220
0.0
230
1.0
 70
     8
 71
     3
 72
    10
 73
     6
 74
     0
 42
0.000000001
 43
0.00000001
 40
0.0
 40
0.0
 40
0.0
 40
0.0
 40
0.4992106694240266
 40
0.7495638367479911
 40
1.0
 40
1.0
 40
1.0
 40
1.0
 10
155.0539698888868
 20
88.90653551527286
 30
0.0
 10
155.0275920532852
 20
88.9050843118418
 30
0.0
 10
154.987985785091
 20
88.90290533274876
 30
0.0
 10
154.936376581961
 20
88.89133210381917
 30
0.0
 10
154.9108906485679
 20
88.88433095657335
 30
0.0
 10
154.8981455699765
 20
88.88082980279957
 30
0.0
  0
LWPOLYLINE
  5
EC
330
1F
100
AcDbEntity
  8
0
  6
Continuous
 62
     7
370
    15
100
AcDbPolyline
 90
        9
 70
   128
 43
0.0
 10
154.9694324905
 20
89.228784446
 10
154.9605219453
 20
89.1852914489
 10
154.9516112838
 20
89.1417979862
 10
154.9427005058
 20
89.0983041742
 10
154.9337896114
 20
89.054810013
 10
154.924878717
 20
89.0113154443
 10
154.9159677062
 20
88.9678205846
 10
154.9070566954
 20
88.9243253757
 10
154.8981455682
 20
88.8808298175
  0
LINE
  5
ED
330
1F
100
AcDbEntity
  8
0
  6
Continuous
 62
     7
370
    15
100
AcDbLine
 10
155.4194149622
 20
89.228784446
 30
0.0
 11
154.9694324905
 21
89.228784446
 31
0.0
  0
LINE
  5
EE
330
1F
100
AcDbEntity
  8
0
  6
Continuous
 62
     7
370
    15
100
AcDbLine
 10
155.4194149622
 20
89.3644682498
 30
0.0
 11
155.4194149622
 21
89.228784446
 31
0.0
  0
LINE
  5
EF
330
1F
100
AcDbEntity
  8
0
  6
Continuous
 62
     7
370
    15
100
AcDbLine
 10
154.8766799798
 20
89.3644682498
 30
0.0
 11
155.4194149622
 21
89.3644682498
 31
0.0
  0
LWPOLYLINE
  5
F0
330
1F
100
AcDbEntity
  8
0
  6
Continuous
 62
     7
370
    15
100
AcDbPolyline
 90
        9
 70
   128
 43
0.0
 10
154.740996176
 20
88.7030098954
 10
154.7579575391
 20
88.7856962642
 10
154.7749186694
 20
88.8683816435
 10
154.7918794505
 20
88.9510659169
 10
154.8088401152
 20
89.0337490843
 10
154.825800547
 20
89.1164309711
 10
154.8427606295
 20
89.199111461
 10
154.8597204793
 20
89.2817905539
 10
154.8766799798
 20
89.3644682498
  0
SPLINE
  5
F1
330
1F
100
AcDbEntity
  8
0
  6
Continuous
 62
     7
370
    15
100
AcDbSpline
210
0.0
220
0.0
230
1.0
 70
     8
 71
     3
 72
    11
 73
     7
 74
     0
 42
0.000000001
 43
0.00000001
 40
0.0
 40
0.0
 40
0.0
 40
0.0
 40
0.2717191074665219
 40
0.4998404400682819
 40
0.7500209349433038
 40
1.0
 40
1.0
 40
1.0
 40
1.0
 10
154.7409962143409
 20
88.70300987424723
 30
0.0
 10
154.7665121293382
 20
88.71261027328117
 30
0.0
 10
154.8134498890708
 20
88.73027067163409
 30
0.0
 10
154.8856474494808
 20
88.75145233179784
 30
0.0
 10
154.9572540568662
 20
88.76705381358852
 30
0.0
 10
155.0074276170633
 20
88.76958611420099
 30
0.0
 10
155.0325042939349
 20
88.7708517545891
 30
0.0
  0
SPLINE
  5
F2
330
1F
100
AcDbEntity
  8
0
  6
Continuous
 62
     7
370
    15
100
AcDbSpline
210
0.0
220
0.0
230
1.0
 70
     8
 71
     3
 72
    13
 73
     9
 74
     0
 42
0.000000001
 43
0.00000001
 40
0.0
 40
0.0
 40
0.0
 40
0.0
 40
0.126253406936068
 40
0.2520702524598061
 40
0.5020594607923644
 40
0.750861854929683
 40
0.8674604359916243
 40
1.0
 40
1.0
 40
1.0
 40
1.0
 10
155.0325042939349
 20
88.7708517545891
 30
0.0
 10
155.0529214520641
 20
88.77010808878359
 30
0.0
 10
155.0936851694879
 20
88.76862332863422
 30
0.0
 10
155.1733819277133
 20
88.75146694236356
 30
0.0
 10
155.2647735481972
 20
88.70206694326154
 30
0.0
 10
155.3257433869022
 20
88.6185599004745
 30
0.0
 10
155.3478809497617
 20
88.54053142594708
 30
0.0
 10
155.3502910061051
 20
88.50024547451677
 30
0.0
 10
155.3515731374178
 20
88.47881366030491
 30
0.0
  0
SPLINE
  5
F3
330
1F
100
AcDbEntity
  8
0
  6
Continuous
 62
     7
370
    15
100
AcDbSpline
210
0.0
220
0.0
230
1.0
 70
     8
 71
     3
 72
    15
 73
    11
 74
     0
 42
0.000000001
 43
0.00000001
 40
0.0
 40
0.0
 40
0.0
 40
0.0
 40
0.0631415641332864
 40
0.1261448761080955
 40
0.2512398062447816
 40
0.5000387322849671
 40
0.6249308096822676
 40
0.7499358053944739
 40
0.8692654693158368
 40
1.0
 40
1.0
 40
1.0
 40
1.0
 10
155.3515731374178
 20
88.47881366030491
 30
0.0
 10
155.3512132080742
 20
88.46771251296326
 30
0.0
 10
155.3504941374733
 20
88.44553452489322
 30
0.0
 10
155.3452712295783
 20
88.40158437945512
 30
0.0
 10
155.3236970376667
 20
88.32726068100955
 30
0.0
 10
155.2723697067917
 20
88.2526930096722
 30
0.0
 10
155.2041390064132
 20
88.1971161731157
 30
0.0
 10
155.1467987739323
 20
88.1656625867275
 30
0.0
 10
155.0827779407012
 20
88.14746471921971
 30
0.0
 10
155.0388004394123
 20
88.14473924822964
 30
0.0
 10
155.0158088311945
 20
88.1433143614267
 30
0.0
  0
SPLINE
  5
F4
330
1F
100
AcDbEntity
  8
0
  6
Continuous
 62
     7
370
    15
100
AcDbSpline
210
0.0
220
0.0
230
1.0
 70
     8
 71
     3
 72
    14
 73
    10
 74
     0
 42
0.000000001
 43
0.00000001
 40
0.0
 40
0.0
 40
0.0
 40
0.0
 40
0.1323759401745638
 40
0.2497628950144092
 40
0.3751984365617171
 40
0.5008070622054949
 40
0.6263512508280358
 40
0.7511324379320715
 40
1.0
 40
1.0
 40
1.0
 40
1.0
 10
155.0158088311945
 20
88.1433143614267
 30
0.0
 10
154.9977590417346
 20
88.14445160789323
 30
0.0
 10
154.9637032483331
 20
88.14659732991377
 30
0.0
 10
154.9137004785154
 20
88.15884119935941
 30
0.0
 10
154.8674436988079
 20
88.1789772312421
 30
0.0
 10
154.823670384332
 20
88.20638523424097
 30
0.0
 10
154.786122900679
 20
88.24172245744118
 30
0.0
 10
154.7459583707795
 20
88.29769052729891
 30
0.0
 10
154.7327999011436
 20
88.3475513200504
 30
0.0
 10
154.7240357442554
 20
88.38076094262328
 30
0.0
  0
LINE
  5
F5
330
1F
100
AcDbEntity
  8
0
  6
Continuous
 62
     7
370
    15
100
AcDbLine
 10
154.6053124886
 20
88.380760934
 30
0.0
 11
154.7240357442
 21
88.380760934
 31
0.0
  0
LWPOLYLINE
  5
F6
330
1F
100
AcDbEntity
  8
0
  6
Continuous
 62
     7
370
    15
100
AcDbPolyline
 90
        9
 70
   128
 43
0.0
 10
155.6059801779
 20
88.3468400122
 10
155.6962623555
 20
88.4783041098
 10
155.7865412734
 20
88.609763318
 10
155.876816466
 20
88.7412172294
 10
155.9670874677
 20
88.8726652617
 10
156.0573542785
 20
89.0041069494
 10
156.1476164326
 20
89.1355418268
 10
156.2378734644
 20
89.26696937
 10
156.3281251412
 20
89.3983891134
  0
LINE
  5
F7
330
1F
100
AcDbEntity
  8
0
  6
Continuous
 62
     7
370
    15
100
AcDbLine
 10
156.2335176687
 20
88.3468400122
 30
0.0
 11
155.6059801779
 21
88.3468400122
 31
0.0
  0
LINE
  5
F8
330
1F
100
AcDbEntity
  8
0
  6
Continuous
 62
     7
370
    15
100
AcDbLine
 10
156.2335176687
 20
88.0415515409
 30
0.0
 11
156.2335176687
 21
88.3468400122
 31
0.0
  0
LINE
  5
F9
330
1F
100
AcDbEntity
  8
0
  6
Continuous
 62
     7
370
    15
100
AcDbLine
 10
156.3522408079
 20
88.0415515409
 30
0.0
 11
156.2335176687
 21
88.0415515409
 31
0.0
  0
LINE
  5
FA
330
1F
100
AcDbEntity
  8
0
  6
Continuous
 62
     7
370
    15
100
AcDbLine
 10
156.3522408079
 20
88.3468400122
 30
0.0
 11
156.3522408079
 21
88.0415515409
 31
0.0
  0
LINE
  5
FB
330
1F
100
AcDbEntity
  8
0
  6
Continuous
 62
     7
370
    15
100
AcDbLine
 10
156.5048850435
 20
88.3468400122
 30
0.0
 11
156.3522408079
 21
88.3468400122
 31
0.0
  0
LINE
  5
FC
330
1F
100
AcDbEntity
  8
0
  6
Continuous
 62
     7
370
    15
100
AcDbLine
 10
156.5048850435
 20
88.4825237578
 30
0.0
 11
156.5048850435
 21
88.3468400122
 31
0.0
  0
LINE
  5
FD
330
1F
100
AcDbEntity
  8
0
  6
Continuous
 62
     7
370
    15
100
AcDbLine
 10
156.3522408079
 20
88.4825237578
 30
0.0
 11
156.5048850435
 21
88.4825237578
 31
0.0
  0
SPLINE
  5
FE
330
1F
100
AcDbEntity
  8
0
  6
Continuous
 62
     7
370
    15
100
AcDbSpline
210
0.0
220
0.0
230
1.0
 70
    24
 71
     3
 72
     9
 73
     5
 74
     0
 42
0.000000001
 43
0.00000001
 40
0.0
 40
0.0
 40
0.0
 40
0.0
 40
0.4999999999999998
 40
0.9999999999999999
 40
0.9999999999999999
 40
0.9999999999999999
 40
0.9999999999999999
 10
156.3522408724605
 20
88.4825237631361
 30
0.0
 10
156.3522408724605
 20
88.63517485738821
 30
0.0
 10
156.3522408724605
 20
88.94047704589241
 30
0.0
 10
156.3522408724605
 20
89.24575178046513
 30
0.0
 10
156.3522408724605
 20
89.39838914775147
 30
0.0
  0
LINE
  5
FF
330
1F
100
AcDbEntity
  8
0
  6
Continuous
 62
     7
370
    15
100
AcDbLine
 10
156.3281251412
 20
89.3983891134
 30
0.0
 11
156.3522408079
 21
89.3983891134
 31
0.0
  0
LINE
  5
100
330
1F
100
AcDbEntity
  8
0
  6
Continuous
 62
     7
370
    15
100
AcDbLine
 10
159.6764931284
 20
88.6182075034
 30
0.0
 11
160.1853072472
 21
88.6182075034
 31
0.0
  0
LINE
  5
101
330
1F
100
AcDbEntity
  8
0
  6
Continuous
 62
     7
370
    15
100
AcDbLine
 10
159.6764931284
 20
88.4825237578
 30
0.0
 11
159.6764931284
 21
88.6182075034
 31
0.0
  0
LINE
  5
102
330
1F
100
AcDbEntity
  8
0
  6
Continuous
 62
     7
370
    15
100
AcDbLine
 10
160.1853072472
 20
88.4825237578
 30
0.0
 11
159.6764931284
 21
88.4825237578
 31
0.0
  0
LINE
  5
103
330
1F
100
AcDbEntity
  8
0
  6
Continuous
 62
     7
370
    15
100
AcDbLine
 10
160.1853072472
 20
88.6182075034
 30
0.0
 11
160.1853072472
 21
88.4825237578
 31
0.0
  0
SPLINE
  5
104
330
1F
100
AcDbEntity
  8
0
  6
Continuous
 62
     7
370
    15
100
AcDbSpline
210
0.0
220
0.0
230
1.0
 70
     8
 71
     3
 72
    13
 73
     9
 74
     0
 42
0.000000001
 43
0.00000001
 40
0.0
 40
0.0
 40
0.0
 40
0.0
 40
0.1257447349593244
 40
0.2509758885636837
 40
0.5004976228279946
 40
0.7497139515448953
 40
0.8695217989303311
 40
1.0
 40
1.0
 40
1.0
 40
1.0
 10
160.2701094622041
 20
88.29675361423119
 30
0.0
 10
160.2808049263463
 20
88.27758732790853
 30
0.0
 10
160.3021521709649
 20
88.23933303645174
 30
0.0
 10
160.3511298720306
 20
88.16703576071667
 30
0.0
 10
160.4249025253375
 20
88.08536641851617
 30
0.0
 10
160.5213092308888
 20
88.03211540642077
 30
0.0
 10
160.6061396922415
 20
88.01128465785035
 30
0.0
 10
160.6496881108353
 20
88.00888275295677
 30
0.0
 10
160.6723906120439
 20
88.00763060074296
 30
0.0
  0
SPLINE
  5
105
330
1F
100
AcDbEntity
  8
0
  6
Continuous
 62
     7
370
    15
100
AcDbSpline
210
0.0
220
0.0
230
1.0
 70
     8
 71
     3
 72
    14
 73
    10
 74
     0
 42
0.000000001
 43
0.00000001
 40
0.0
 40
0.0
 40
0.0
 40
0.0
 40
0.0631901020261634
 40
0.1260465201595508
 40
0.2513644729695463
 40
0.5005790779711253
 40
0.7500684126207826
 40
0.8748039393665478
 40
0.9999999999999999
 40
0.9999999999999999
 40
0.9999999999999999
 40
0.9999999999999999
 10
160.6723906120439
 20
88.00763060074296
 30
0.0
 10
160.6845063277311
 20
88.00792625759034
 30
0.0
 10
160.7086737804279
 20
88.00851601002906
 30
0.0
 10
160.7565506046122
 20
88.01452483794019
 30
0.0
 10
160.8380789555182
 20
88.03648846045563
 30
0.0
 10
160.9408303392677
 20
88.1035442908054
 30
0.0
 10
161.0150960087394
 20
88.20121807562538
 30
0.0
 10
161.0459930566184
 20
88.29335368885693
 30
0.0
 10
161.0488566507724
 20
88.34152532459699
 30
0.0
 10
161.0502910861358
 20
88.36565552395342
 30
0.0
  0
SPLINE
  5
106
330
1F
100
AcDbEntity
  8
0
  6
Continuous
 62
     7
370
    15
100
AcDbSpline
210
0.0
220
0.0
230
1.0
 70
     8
 71
     3
 72
    14
 73
    10
 74
     0
 42
0.000000001
 43
0.00000001
 40
0.0
 40
0.0
 40
0.0
 40
0.0
 40
0.129618440763006
 40
0.2486186781490928
 40
0.3701484661083517
 40
0.4982437662840269
 40
0.7489724894890326
 40
0.8744646064891908
 40
1.0
 40
1.0
 40
1.0
 40
1.0
 10
161.0502910861358
 20
88.36565552395342
 30
0.0
 10
161.048129028484
 20
88.38936596827101
 30
0.0
 10
161.04398202662
 20
88.43484452278736
 30
0.0
 10
161.0226789672228
 20
88.49980325204758
 30
0.0
 10
160.9902020126262
 20
88.55928051187799
 30
0.0
 10
160.9341561707683
 20
88.6320549672372
 30
0.0
 10
160.8659608431532
 20
88.69482486812095
 30
0.0
 10
160.7942493175862
 20
88.7519877064369
 30
0.0
 10
160.757180201613
 20
88.77904925162231
 30
0.0
 10
160.7386424483152
 20
88.79258235688611
 30
0.0
  0
SPLINE
  5
107
330
1F
100
AcDbEntity
  8
0
  6
Continuous
 62
     7
370
    15
100
AcDbSpline
210
0.0
220
0.0
230
1.0
 70
     8
 71
     3
 72
    10
 73
     6
 74
     0
 42
0.000000001
 43
0.00000001
 40
0.0
 40
0.0
 40
0.0
 40
0.0
 40
0.5000255527127155
 40
0.8003194681948788
 40
1.0
 40
1.0
 40
1.0
 40
1.0
 10
160.7386424483152
 20
88.79258235688611
 30
0.0
 10
160.7086214785934
 20
88.81400874675292
 30
0.0
 10
160.6605712011783
 20
88.84830290802229
 30
0.0
 10
160.6006892684972
 20
88.89146036922367
 30
0.0
 10
160.5722004329151
 20
88.9149211901477
 30
0.0
 10
160.5608225197629
 20
88.92429100739359
 30
0.0
  0
SPLINE
  5
108
330
1F
100
AcDbEntity
  8
0
  6
Continuous
 62
     7
370
    15
100
AcDbSpline
210
0.0
220
0.0
230
1.0
 70
     8
 71
     3
 72
    11
 73
     7
 74
     0
 42
0.000000001
 43
0.00000001
 40
0.0
 40
0.0
 40
0.0
 40
0.0
 40
0.2513577496555162
 40
0.5014252186653126
 40
0.7465887752002421
 40
1.0
 40
1.0
 40
1.0
 40
1.0
 10
160.5608225197629
 20
88.92429100739359
 30
0.0
 10
160.5490681647465
 20
88.93593881872981
 30
0.0
 10
160.5256197926854
 20
88.95917465034528
 30
0.0
 10
160.4968842552471
 20
88.99938020623144
 30
0.0
 10
160.4777688582001
 20
89.04562535767256
 30
0.0
 10
160.475028134352
 20
89.07850763098239
 30
0.0
 10
160.4736351032298
 20
89.09522074497373
 30
0.0
  0
SPLINE
  5
109
330
1F
100
AcDbEntity
  8
0
  6
Continuous
 62
     7
370
    15
100
AcDbSpline
210
0.0
220
0.0
230
1.0
 70
     8
 71
     3
 72
    13
 73
     9
 74
     0
 42
0.000000001
 43
0.00000001
 40
0.0
 40
0.0
 40
0.0
 40
0.0
 40
0.063343518820934
 40
0.126178057790097
 40
0.2515375992075576
 40
0.5011956387054222
 40
0.7504093687511242
 40
1.0
 40
1.0
 40
1.0
 40
1.0
 10
160.4736351032298
 20
89.09522074497373
 30
0.0
 10
160.473960482256
 20
89.1012455373301
 30
0.0
 10
160.4746086258127
 20
89.11324671144023
 30
0.0
 10
160.4781811812539
 20
89.1369647001489
 30
0.0
 10
160.491750912628
 20
89.17685003315424
 30
0.0
 10
160.5314964943393
 20
89.22355236565532
 30
0.0
 10
160.5962211873697
 20
89.2574736296325
 30
0.0
 10
160.6438087298152
 20
89.26096058966287
 30
0.0
 10
160.6676204798323
 20
89.26270538706774
 30
0.0
  0
SPLINE
  5
10A
330
1F
100
AcDbEntity
  8
0
  6
Continuous
 62
     7
370
    15
100
AcDbSpline
210
0.0
220
0.0
230
1.0
 70
     8
 71
     3
 72
    12
 73
     8
 74
     0
 42
0.000000001
 43
0.00000001
 40
0.0
 40
0.0
 40
0.0
 40
0.0
 40
0.1334192892699583
 40
0.2493068728233332
 40
0.4979116974545215
 40
0.7487290646655995
 40
1.0
 40
1.0
 40
1.0
 40
1.0
 10
160.6676204798323
 20
89.26270538706774
 30
0.0
 10
160.681884121366
 20
89.26177441482821
 30
0.0
 10
160.7085371179849
 20
89.26003480297005
 30
0.0
 10
160.7606530897778
 20
89.24761482586794
 30
0.0
 10
160.8191631790727
 20
89.21421162263569
 30
0.0
 10
160.8756334695483
 20
89.1562781809429
 30
0.0
 10
160.9092028089406
 20
89.11417253002229
 30
0.0
 10
160.9260026412907
 20
89.09310068621303
 30
0.0
  0
LWPOLYLINE
  5
10B
330
1F
100
AcDbEntity
  8
0
  6
Continuous
 62
     7
370
    15
100
AcDbPolyline
 90
        9
 70
   128
 43
0.0
 10
161.0333304681
 20
89.1744579555
 10
161.019915232
 20
89.1642888443
 10
161.006499996
 20
89.1541196167
 10
160.9930842943
 20
89.1439502727
 10
160.9796685926
 20
89.1337806958
 10
160.9662524253
 20
89.1236108861
 10
160.9528357923
 20
89.11344096
 10
160.9394196249
 20
89.1032709175
 10
160.9260025263
 20
89.0931006422
  0
SPLINE
  5
10C
330
1F
100
AcDbEntity
  8
0
  6
Continuous
 62
     7
370
    15
100
AcDbSpline
210
0.0
220
0.0
230
1.0
 70
     8
 71
     3
 72
    13
 73
     9
 74
     0
 42
0.000000001
 43
0.00000001
 40
0.0
 40
0.0
 40
0.0
 40
0.0
 40
0.2515094575880737
 40
0.3769748040555402
 40
0.5023216247535763
 40
0.7506586493435944
 40
0.8715167489769305
 40
0.9999999999999999
 40
0.9999999999999999
 40
0.9999999999999999
 40
0.9999999999999999
 10
161.0333306160503
 20
89.17445794115427
 30
0.0
 10
161.0112492768755
 20
89.20360160961604
 30
0.0
 10
160.9781526745111
 20
89.24728358012003
 30
0.0
 10
160.9272959799004
 20
89.29972797413068
 30
0.0
 10
160.8715055163118
 20
89.34611756844498
 30
0.0
 10
160.8061755430626
 20
89.37901496388372
 30
0.0
 10
160.7355391050961
 20
89.39480867625255
 30
0.0
 10
160.6994613663
 20
89.39717157055738
 30
0.0
 10
160.6808708470866
 20
89.3983891477515
 30
0.0
  0
SPLINE
  5
10D
330
1F
100
AcDbEntity
  8
0
  6
Continuous
 62
     7
370
    15
100
AcDbSpline
210
0.0
220
0.0
230
1.0
 70
     8
 71
     3
 72
    15
 73
    11
 74
     0
 42
0.000000001
 43
0.00000001
 40
0.0
 40
0.0
 40
0.0
 40
0.0
 40
0.1254928877929141
 40
0.2505127319565244
 40
0.3754975767776679
 40
0.5005413578315414
 40
0.6251728464737882
 40
0.7502051367634035
 40
0.874791577136351
 40
1.0
 40
1.0
 40
1.0
 40
1.0
 10
160.6808708470866
 20
89.3983891477515
 30
0.0
 10
160.6599509678084
 20
89.39739032741905
 30
0.0
 10
160.6181900664351
 20
89.39539645179296
 30
0.0
 10
160.5573817450142
 20
89.37879947060594
 30
0.0
 10
160.5007320667548
 20
89.351865375199
 30
0.0
 10
160.4497911806351
 20
89.31496320675716
 30
0.0
 10
160.4083564075572
 20
89.26754846460038
 30
0.0
 10
160.377162747279
 20
89.21293284860764
 30
0.0
 10
160.3590326573125
 20
89.15232065540297
 30
0.0
 10
160.3562877058103
 20
89.11057859115802
 30
0.0
 10
160.3549118126315
 20
89.08965559072693
 30
0.0
  0
SPLINE
  5
10E
330
1F
100
AcDbEntity
  8
0
  6
Continuous
 62
     7
370
    15
100
AcDbSpline
210
0.0
220
0.0
230
1.0
 70
     8
 71
     3
 72
    11
 73
     7
 74
     0
 42
0.000000001
 43
0.00000001
 40
0.0
 40
0.0
 40
0.0
 40
0.0
 40
0.2508592305850667
 40
0.4998259826033001
 40
0.7489115619030187
 40
1.0
 40
1.0
 40
1.0
 40
1.0
 10
160.3549118126315
 20
89.08965559072693
 30
0.0
 10
160.3557710229026
 20
89.0713341162535
 30
0.0
 10
160.3574829615745
 20
89.03482938425674
 30
0.0
 10
160.3729999595939
 20
88.98205407400353
 30
0.0
 10
160.3963754083858
 20
88.9324206214586
 30
0.0
 10
160.417995519426
 20
88.90301279894352
 30
0.0
 10
160.4288488619103
 20
88.88825000846197
 30
0.0
  0
SPLINE
  5
10F
330
1F
100
AcDbEntity
  8
0
  6
Continuous
 62
     7
370
    15
100
AcDbSpline
210
0.0
220
0.0
230
1.0
 70
     8
 71
     3
 72
    11
 73
     7
 74
     0
 42
0.000000001
 43
0.00000001
 40
0.0
 40
0.0
 40
0.0
 40
0.0
 40
0.1212810442969458
 40
0.2497396182408543
 40
0.4998040138553052
 40
1.0
 40
1.0
 40
1.0
 40
1.0
 10
160.4288488619103
 20
88.88825000846197
 30
0.0
 10
160.4363979278731
 20
88.87967095513824
 30
0.0
 10
160.4519428208328
 20
88.86200513180735
 30
0.0
 10
160.4864745507247
 20
88.82996432953492
 30
0.0
 10
160.5504867460809
 20
88.77755669030265
 30
0.0
 10
160.6075685980721
 20
88.73600943302257
 30
0.0
 10
160.6456248701902
 20
88.70831002114893
 30
0.0
  0
SPLINE
  5
110
330
1F
100
AcDbEntity
  8
0
  6
Continuous
 62
     7
370
    15
100
AcDbSpline
210
0.0
220
0.0
230
1.0
 70
     8
 71
     3
 72
    12
 73
     8
 74
     0
 42
0.000000001
 43
0.00000001
 40
0.0
 40
0.0
 40
0.0
 40
0.0
 40
0.2500182998810836
 40
0.4999557134204196
 40
0.750035498269555
 40
0.8753337872851537
 40
1.0
 40
1.0
 40
1.0
 40
1.0
 10
160.6456248701902
 20
88.70831002114893
 30
0.0
 10
160.6671768357423
 20
88.69268597883374
 30
0.0
 10
160.7102737943181
 20
88.66144294891988
 30
0.0
 10
160.7726340679242
 20
88.61151529829182
 30
0.0
 10
160.8223000471625
 20
88.56705786699604
 30
0.0
 10
160.8590483225192
 20
88.52843055594683
 30
0.0
 10
160.8757845347718
 20
88.50770216324096
 30
0.0
 10
160.8841314807671
 20
88.4973641744609
 30
0.0
  0
SPLINE
  5
111
330
1F
100
AcDbEntity
  8
0
  6
Continuous
 62
     7
370
    15
100
AcDbSpline
210
0.0
220
0.0
230
1.0
 70
     8
 71
     3
 72
    11
 73
     7
 74
     0
 42
0.000000001
 43
0.00000001
 40
0.0
 40
0.0
 40
0.0
 40
0.0
 40
0.2505419795380691
 40
0.500032965991446
 40
0.7490324390175498
 40
1.0
 40
1.0
 40
1.0
 40
1.0
 10
160.8841314807672
 20
88.4973641744609
 30
0.0
 10
160.8907910319645
 20
88.48768853202522
 30
0.0
 10
160.9040821983532
 20
88.46837783529523
 30
0.0
 10
160.9193586811602
 20
88.4366530752193
 30
0.0
 10
160.9296706037125
 20
88.40277180167209
 30
0.0
 10
160.9309337408432
 20
88.37929512228104
 30
0.0
 10
160.9315677955374
 20
88.36751057536901
 30
0.0
  0
SPLINE
  5
112
330
1F
100
AcDbEntity
  8
0
  6
Continuous
 62
     7
370
    15
100
AcDbSpline
210
0.0
220
0.0
230
1.0
 70
     8
 71
     3
 72
    15
 73
    11
 74
     0
 42
0.000000001
 43
0.00000001
 40
0.0
 40
0.0
 40
0.0
 40
0.0
 40
0.0631175009667478
 40
0.1259604156630548
 40
0.2513132552913611
 40
0.5001585841724252
 40
0.6433714066656772
 40
0.7859558685147777
 40
0.8891074847266279
 40
1.0
 40
1.0
 40
1.0
 40
1.0
 10
160.9315677955374
 20
88.36751057536901
 30
0.0
 10
160.9312001912584
 20
88.35950551714751
 30
0.0
 10
160.9304665819254
 20
88.34353022589637
 30
0.0
 10
160.924963960114
 20
88.31202770298198
 30
0.0
 10
160.9054765225875
 20
88.25969781285481
 30
0.0
 10
160.8623506647332
 20
88.2070931008694
 30
0.0
 10
160.8040194908921
 20
88.17206298119332
 30
0.0
 10
160.7578174342347
 20
88.15442535404124
 30
0.0
 10
160.7134343921628
 20
88.14561721895451
 30
0.0
 10
160.6863977979342
 20
88.14410026743677
 30
0.0
 10
160.6723906120439
 20
88.1433143614267
 30
0.0
  0
SPLINE
  5
113
330
1F
100
AcDbEntity
  8
0
  6
Continuous
 62
     7
370
    15
100
AcDbSpline
210
0.0
220
0.0
230
1.0
 70
     8
 71
     3
 72
    14
 73
    10
 74
     0
 42
0.000000001
 43
0.00000001
 40
0.0
 40
0.0
 40
0.0
 40
0.0
 40
0.0635599068047386
 40
0.1266428377304394
 40
0.2520192448417682
 40
0.5002959399927182
 40
0.7493581124313203
 40
0.8746262214292004
 40
0.9999999999999999
 40
0.9999999999999999
 40
0.9999999999999999
 40
0.9999999999999999
 10
160.6723906120439
 20
88.1433143614267
 30
0.0
 10
160.6643164460458
 20
88.14369735785895
 30
0.0
 10
160.6482287054291
 20
88.14446047658362
 30
0.0
 10
160.6163924907148
 20
88.14864944115129
 30
0.0
 10
160.5630713234477
 20
88.16581086375965
 30
0.0
 10
160.4960036255283
 20
88.21063177942486
 30
0.0
 10
160.4427385803164
 20
88.27014065409344
 30
0.0
 10
160.4066341408819
 20
88.3226842038017
 30
0.0
 10
160.3901754011594
 20
88.35009119806767
 30
0.0
 10
160.3819425618302
 20
88.36380047253782
 30
0.0
  0
LWPOLYLINE
  5
114
330
1F
100
AcDbEntity
  8
0
  6
Continuous
 62
     7
370
    15
100
AcDbPolyline
 90
        9
 70
   128
 43
0.0
 10
160.2701092899
 20
88.2967536005
 10
160.284089373
 20
88.3051348925
 10
160.2980689905
 20
88.313516039
 10
160.3120481424
 20
88.3218970982
 10
160.3260277599
 20
88.3302780118
 10
160.3400064461
 20
88.338658809
 10
160.3539855979
 20
88.3470394898
 10
160.3679642841
 20
88.3554200251
 10
160.3819425046
 20
88.3638004731
  0
LINE
  5
115
330
1F
100
AcDbEntity
  8
0
  6
Continuous
 62
     7
370
    15
100
AcDbLine
 10
161.5760652177
 20
89.228784446
 30
0.0
 11
161.5760652177
 21
88.0415515409
 31
0.0
  0
LINE
  5
116
330
1F
100
AcDbEntity
  8
0
  6
Continuous
 62
     7
370
    15
100
AcDbLine
 10
161.8643933735
 20
89.228784446
 30
0.0
 11
161.5760652177
 21
89.228784446
 31
0.0
  0
LINE
  5
117
330
1F
100
AcDbEntity
  8
0
  6
Continuous
 62
     7
370
    15
100
AcDbLine
 10
161.8643933735
 20
89.3644682498
 30
0.0
 11
161.8643933735
 21
89.228784446
 31
0.0
  0
LINE
  5
118
330
1F
100
AcDbEntity
  8
0
  6
Continuous
 62
     7
370
    15
100
AcDbLine
 10
161.1690143883
 20
89.3644682498
 30
0.0
 11
161.8643933735
 21
89.3644682498
 31
0.0
  0
LINE
  5
119
330
1F
100
AcDbEntity
  8
0
  6
Continuous
 62
     7
370
    15
100
AcDbLine
 10
161.1690143883
 20
89.228784446
 30
0.0
 11
161.1690143883
 21
89.3644682498
 31
0.0
  0
LINE
  5
11A
330
1F
100
AcDbEntity
  8
0
  6
Continuous
 62
     7
370
    15
100
AcDbLine
 10
161.4573420785
 20
89.228784446
 30
0.0
 11
161.1690143883
 21
89.228784446
 31
0.0
  0
LINE
  5
11B
330
1F
100
AcDbEntity
  8
0
  6
Continuous
 62
     7
370
    15
100
AcDbLine
 10
161.4573420785
 20
88.0415515409
 30
0.0
 11
161.4573420785
 21
89.228784446
 31
0.0
  0
LINE
  5
11C
330
1F
100
AcDbEntity
  8
0
  6
Continuous
 62
     7
370
    15
100
AcDbLine
 10
161.5760652177
 20
88.0415515409
 30
0.0
 11
161.4573420785
 21
88.0415515409
 31
0.0
  0
SPLINE
  5
11D
330
1F
100
AcDbEntity
  8
0
  6
Continuous
 62
     7
370
    15
100
AcDbSpline
210
0.0
220
0.0
230
1.0
 70
     8
 71
     3
 72
    17
 73
    13
 74
     0
 42
0.000000001
 43
0.00000001
 40
0.0
 40
0.0
 40
0.0
 40
0.0
 40
0.0651130037841469
 40
0.1258396055292528
 40
0.1878711404879034
 40
0.2511683587908091
 40
0.3706724628156697
 40
0.5008571796192999
 40
0.6262636690630445
 40
0.7503881071187202
 40
0.8752196019846096
 40
1.0
 40
1.0
 40
1.0
 40
1.0
 10
159.1011620630321
 20
88.00763060074296
 30
0.0
 10
159.1213682526609
 20
88.00856716598999
 30
0.0
 10
159.1604194219261
 20
88.01037720383786
 30
0.0
 10
159.217593136879
 20
88.02312851598172
 30
0.0
 10
159.2715812541104
 20
88.04410820647298
 30
0.0
 10
159.3378543099105
 20
88.08177235431306
 30
0.0
 10
159.4111431797651
 20
88.14752718372017
 30
0.0
 10
159.4753783557412
 20
88.2460211690589
 30
0.0
 10
159.5194883698426
 20
88.35613349727932
 30
0.0
 10
159.5440783118495
 20
88.4702858104831
 30
0.0
 10
159.5554253627476
 20
88.58608503117802
 30
0.0
 10
159.5569883733109
 20
88.66368687859774
 30
0.0
 10
159.5577697186144
 20
88.70247985955704
 30
0.0
  0
SPLINE
  5
11E
330
1F
100
AcDbEntity
  8
0
  6
Continuous
 62
     7
370
    15
100
AcDbSpline
210
0.0
220
0.0
230
1.0
 70
     8
 71
     3
 72
    16
 73
    12
 74
     0
 42
0.000000001
 43
0.00000001
 40
0.0
 40
0.0
 40
0.0
 40
0.0
 40
0.1251043334585084
 40
0.2501452441614213
 40
0.3747886174530385
 40
0.4998927498705122
 40
0.5998521408329501
 40
0.7497292958844792
 40
0.8745702571077744
 40
0.9360865200657723
 40
0.9999999999999999
 40
0.9999999999999999
 40
0.9999999999999999
 40
0.9999999999999999
 10
159.5577697186144
 20
88.70247985955704
 30
0.0
 10
159.5569685682592
 20
88.74138487605127
 30
0.0
 10
159.555366673699
 20
88.81917518579522
 30
0.0
 10
159.5436994104721
 20
88.93531625635237
 30
0.0
 10
159.5190732676043
 20
89.0496197387781
 30
0.0
 10
159.4784481401161
 20
89.15118117390347
 30
0.0
 10
159.4171781458095
 20
89.25085977545713
 30
0.0
 10
159.3321185896725
 20
89.33374246787041
 30
0.0
 10
159.2361517477725
 20
89.37898654219615
 30
0.0
 10
159.1599296023835
 20
89.39553708196968
 30
0.0
 10
159.1209992554653
 20
89.39742642277831
 30
0.0
 10
159.1011620630321
 20
89.3983891477515
 30
0.0
  0
SPLINE
  5
11F
330
1F
100
AcDbEntity
  8
0
  6
Continuous
 62
     7
370
    15
100
AcDbSpline
210
0.0
220
0.0
230
1.0
 70
     8
 71
     3
 72
    15
 73
    11
 74
     0
 42
0.000000001
 43
0.00000001
 40
0.0
 40
0.0
 40
0.0
 40
0.0
 40
0.0632878425199152
 40
0.1261853476989302
 40
0.2515536131260936
 40
0.3733120211796221
 40
0.5022868888120143
 40
0.7503906928600603
 40
0.8752998918160552
 40
0.9999999999999999
 40
0.9999999999999999
 40
0.9999999999999999
 40
0.9999999999999999
 10
159.1011620630321
 20
89.3983891477515
 30
0.0
 10
159.0816463126882
 20
89.3975999349507
 30
0.0
 10
159.0427351783424
 20
89.39602637693845
 30
0.0
 10
158.9668548743592
 20
89.3785260431692
 30
0.0
 10
158.8795612048107
 20
89.33618079050034
 30
0.0
 10
158.7933274913858
 20
89.25645063779231
 30
0.0
 10
158.7114562806996
 20
89.1243375308711
 30
0.0
 10
158.6730608626588
 20
88.97113798118006
 30
0.0
 10
158.6603658792031
 20
88.81809006055593
 30
0.0
 10
158.6593648829551
 20
88.74099506644613
 30
0.0
 10
158.6588648040845
 20
88.70247985955704
 30
0.0
  0
SPLINE
  5
120
330
1F
100
AcDbEntity
  8
0
  6
Continuous
 62
     7
370
    15
100
AcDbSpline
210
0.0
220
0.0
230
1.0
 70
     8
 71
     3
 72
    16
 73
    12
 74
     0
 42
0.000000001
 43
0.00000001
 40
0.0
 40
0.0
 40
0.0
 40
0.0
 40
0.1249827915563992
 40
0.2499583390962349
 40
0.374478643547086
 40
0.4995190122147313
 40
0.6285646994108567
 40
0.7494445344340339
 40
0.874429561782172
 40
0.9350491726701905
 40
1.0
 40
1.0
 40
1.0
 40
1.0
 10
158.6588648040845
 20
88.70247985955704
 30
0.0
 10
158.6594124847314
 20
88.66393029189513
 30
0.0
 10
158.6605078142815
 20
88.5868333909085
 30
0.0
 10
158.6708546534711
 20
88.47166881697504
 30
0.0
 10
158.6928543900813
 20
88.35792749350566
 30
0.0
 10
158.7334691131383
 20
88.24785453377395
 30
0.0
 10
158.7946927854956
 20
88.14847185038562
 30
0.0
 10
158.8804216904169
 20
88.06884855347217
 30
0.0
 10
158.9668679132691
 20
88.02706869625784
 30
0.0
 10
159.0425275905476
 20
88.01059185340306
 30
0.0
 10
159.0811729164821
 20
88.00864012484858
 30
0.0
 10
159.1011620630321
 20
88.00763060074296
 30
0.0
  0
LWPOLYLINE
  5
121
330
1F
100
AcDbEntity
  8
0
  6
Continuous
 62
     7
370
    15
100
AcDbPolyline
 90
        9
 70
   128
 43
0.0
 10
158.5401412859
 20
89.3644682498
 10
158.4532437674
 20
89.194911429
 10
158.3663378671
 20
89.0253390086
 10
158.2794245161
 20
88.8557521527
 10
158.1925041802
 20
88.686151618
 10
158.105577325
 20
88.5165382776
 10
158.0186444163
 20
88.3469130628
 10
157.9317059196
 20
88.1772768759
 10
157.8447623007
 20
88.0076306009
  0
LINE
  5
122
330
1F
100
AcDbEntity
  8
0
  6
Continuous
 62
     7
370
    15
100
AcDbLine
 10
157.7260391615
 20
89.3644682498
 30
0.0
 11
158.5401412859
 21
89.3644682498
 31
0.0
  0
LINE
  5
123
330
1F
100
AcDbEntity
  8
0
  6
Continuous
 62
     7
370
    15
100
AcDbLine
 10
157.7260391615
 20
89.228784446
 30
0.0
 11
157.7260391615
 21
89.3644682498
 31
0.0
  0
SPLINE
  5
124
330
1F
100
AcDbEntity
  8
0
  6
Continuous
 62
     7
370
    15
100
AcDbSpline
210
0.0
220
0.0
230
1.0
 70
     8
 71
     3
 72
     9
 73
     5
 74
     0
 42
0.000000001
 43
0.00000001
 40
0.0
 40
0.0
 40
0.0
 40
0.0
 40
0.4844799956459958
 40
1.0
 40
1.0
 40
1.0
 40
1.0
 10
157.7260389493836
 20
89.2287844468968
 30
0.0
 10
157.8250861820277
 20
89.22878700671237
 30
0.0
 10
158.0295264758152
 20
89.2287922903476
 30
0.0
 10
158.2339048206779
 20
89.22878711492875
 30
0.0
 10
158.3392659459114
 20
89.2287844468968
 30
0.0
  0
LWPOLYLINE
  5
125
330
1F
100
AcDbEntity
  8
0
  6
Continuous
 62
     7
370
    15
100
AcDbPolyline
 90
        9
 70
   128
 43
0.0
 10
157.7422045931
 20
88.0640771654
 10
157.8168524258
 20
88.2096952688
 10
157.8914965331
 20
88.3553060254
 10
157.9661364495
 20
88.5009088512
 10
158.040772175
 20
88.6465032369
 10
158.1154032439
 20
88.7920885131
 10
158.1900296561
 20
88.937664185
 10
158.2646504804
 20
89.0832296706
 10
158.3392657168
 20
89.228784446
  0
LWPOLYLINE
  5
126
330
1F
100
AcDbEntity
  8
0
  6
Continuous
 62
     7
370
    15
100
AcDbPolyline
 90
        9
 70
   128
 43
0.0
 10
157.8447623007
 20
88.0076306009
 10
157.8319426454
 20
88.0146862225
 10
157.8191234559
 20
88.0217419023
 10
157.8063038006
 20
88.0287976376
 10
157.7934841454
 20
88.0358534306
 10
157.7806644901
 20
88.0429092801
 10
157.7678443692
 20
88.0499651855
 10
157.755024714
 20
88.0570211472
 10
157.7422045931
 20
88.0640771654
  0
SPLINE
  5
127
330
1F
100
AcDbEntity
  8
0
  6
Continuous
 62
     7
370
    15
100
AcDbSpline
210
0.0
220
0.0
230
1.0
 70
     8
 71
     3
 72
    13
 73
     9
 74
     0
 42
0.000000001
 43
0.00000001
 40
0.0
 40
0.0
 40
0.0
 40
0.0
 40
0.1261013016997602
 40
0.2515686858115624
 40
0.5009005797592213
 40
0.7502414462984369
 40
0.8748553621902837
 40
0.9999999999999999
 40
0.9999999999999999
 40
0.9999999999999999
 40
0.9999999999999999
 10
156.7932130946828
 20
88.95741692552927
 30
0.0
 10
156.7954334104003
 20
88.97750088777599
 30
0.0
 10
156.7998628801966
 20
89.01756784918075
 30
0.0
 10
156.8226224245938
 20
89.09472128946423
 30
0.0
 10
156.8759390948146
 20
89.1823996739586
 30
0.0
 10
156.9622534756554
 20
89.23886380285488
 30
0.0
 10
157.0398550636758
 20
89.25960189783527
 30
0.0
 10
157.0798077841463
 20
89.26166942619908
 30
0.0
 10
157.0998265929466
 20
89.26270538706774
 30
0.0
  0
SPLINE
  5
128
330
1F
100
AcDbEntity
  8
0
  6
Continuous
 62
     7
370
    15
100
AcDbSpline
210
0.0
220
0.0
230
1.0
 70
     8
 71
     3
 72
    13
 73
     9
 74
     0
 42
0.000000001
 43
0.00000001
 40
0.0
 40
0.0
 40
0.0
 40
0.0
 40
0.1260102735903407
 40
0.251152545981668
 40
0.5005327051133566
 40
0.7501772346640665
 40
0.8748304434605743
 40
0.9999999999999999
 40
0.9999999999999999
 40
0.9999999999999999
 40
0.9999999999999999
 10
157.0998265929466
 20
89.26270538706774
 30
0.0
 10
157.1181130586564
 20
89.26185728514676
 30
0.0
 10
157.1545600267421
 20
89.26016692331642
 30
0.0
 10
157.225237431596
 20
89.24139843786563
 30
0.0
 10
157.3040213681469
 20
89.19249924594536
 30
0.0
 10
157.3600820028613
 20
89.11843766322113
 30
0.0
 10
157.3835793159115
 20
89.04902650240341
 30
0.0
 10
157.3857446452785
 20
89.01271248864403
 30
0.0
 10
157.3868295476742
 20
88.99451795384124
 30
0.0
  0
SPLINE
  5
129
330
1F
100
AcDbEntity
  8
0
  6
Continuous
 62
     7
370
    15
100
AcDbSpline
210
0.0
220
0.0
230
1.0
 70
     8
 71
     3
 72
    13
 73
     9
 74
     0
 42
0.000000001
 43
0.00000001
 40
0.0
 40
0.0
 40
0.0
 40
0.0
 40
0.1255892113649846
 40
0.249984205348195
 40
0.4988511227508764
 40
0.7493845052129774
 40
0.874689260050858
 40
1.0
 40
1.0
 40
1.0
 40
1.0
 10
157.3868295476742
 20
88.99451795384124
 30
0.0
 10
157.3856001513142
 20
88.97404116296514
 30
0.0
 10
157.3831530488221
 20
88.93328229331695
 30
0.0
 10
157.3583519110026
 20
88.85503601678732
 30
0.0
 10
157.3011606668294
 20
88.76966879145903
 30
0.0
 10
157.2342051678456
 20
88.69330891939295
 30
0.0
 10
157.1789355383453
 20
88.63329100293078
 30
0.0
 10
157.1507538130662
 20
88.60380171296819
 30
0.0
 10
157.1366626139135
 20
88.58905671586047
 30
0.0
  0
LWPOLYLINE
  5
12A
330
1F
100
AcDbEntity
  8
0
  6
Continuous
 62
     7
370
    15
100
AcDbPolyline
 90
        9
 70
   128
 43
0.0
 10
156.6236084155
 20
88.0415515409
 10
156.6877476699
 20
88.1099975729
 10
156.7518848288
 20
88.1784415239
 10
156.8160198923
 20
88.2468833139
 10
156.8801530931
 20
88.315322863
 10
156.9442839656
 20
88.3837600547
 10
157.0084125098
 20
88.4521948307
 10
157.0725387256
 20
88.5206270747
 10
157.1366626132
 20
88.5890566994
  0
LINE
  5
12B
330
1F
100
AcDbEntity
  8
0
  6
Continuous
 62
     7
370
    15
100
AcDbLine
 10
157.522513514
 20
88.0415515409
 30
0.0
 11
156.6236084155
 21
88.0415515409
 31
0.0
  0
LINE
  5
12C
330
1F
100
AcDbEntity
  8
0
  6
Continuous
 62
     7
370
    15
100
AcDbLine
 10
157.522513514
 20
88.1772353011
 30
0.0
 11
157.522513514
 21
88.0415515409
 31
0.0
  0
LINE
  5
12D
330
1F
100
AcDbEntity
  8
0
  6
Continuous
 62
     7
370
    15
100
AcDbLine
 10
156.9069011431
 20
88.1772353011
 30
0.0
 11
157.522513514
 21
88.1772353011
 31
0.0
  0
LINE
  5
12E
330
1F
100
AcDbEntity
  8
0
  6
Continuous
 62
     7
370
    15
100
AcDbLine
 10
157.2378955144
 20
88.5304900718
 30
0.0
 11
156.9069011431
 21
88.1772353011
 31
0.0
  0
SPLINE
  5
12F
330
1F
100
AcDbEntity
  8
0
  6
Continuous
 62
     7
370
    15
100
AcDbSpline
210
0.0
220
0.0
230
1.0
 70
     8
 71
     3
 72
    14
 73
    10
 74
     0
 42
0.000000001
 43
0.00000001
 40
0.0
 40
0.0
 40
0.0
 40
0.0
 40
0.125175643586767
 40
0.2503534739445401
 40
0.5004851706338225
 40
0.6255494558453993
 40
0.7499110503132955
 40
0.8674486059768212
 40
1.0
 40
1.0
 40
1.0
 40
1.0
 10
157.2378954197362
 20
88.53049009259658
 30
0.0
 10
157.2537918850028
 20
88.54757015533467
 30
0.0
 10
157.2855850932412
 20
88.58173057919305
 30
0.0
 10
157.3476255787506
 20
88.65137782403171
 30
0.0
 10
157.4064971520883
 20
88.72396602563144
 30
0.0
 10
157.4565874855548
 20
88.80268361478117
 30
0.0
 10
157.4844972323951
 20
88.86552864854468
 30
0.0
 10
157.500828384188
 20
88.93382581743616
 30
0.0
 10
157.5039162283719
 20
88.98042165941818
 30
0.0
 10
157.5055528382725
 20
89.00511824764466
 30
0.0
  0
SPLINE
  5
130
330
1F
100
AcDbEntity
  8
0
  6
Continuous
 62
     7
370
    15
100
AcDbSpline
210
0.0
220
0.0
230
1.0
 70
     8
 71
     3
 72
    15
 73
    11
 74
     0
 42
0.000000001
 43
0.00000001
 40
0.0
 40
0.0
 40
0.0
 40
0.0
 40
0.1254861353556792
 40
0.2502932774339841
 40
0.3751818658953788
 40
0.5004351812437879
 40
0.6253817614673692
 40
0.750606466599239
 40
0.8750480385413965
 40
1.0
 40
1.0
 40
1.0
 40
1.0
 10
157.5055528382725
 20
89.00511824764466
 30
0.0
 10
157.504202340381
 20
89.03132393268466
 30
0.0
 10
157.5015086520108
 20
89.08359350635088
 30
0.0
 10
157.4782077107244
 20
89.15912148113864
 30
0.0
 10
157.4407784081479
 20
89.22817337111026
 30
0.0
 10
157.3913381540302
 20
89.2894008642232
 30
0.0
 10
157.3302399910279
 20
89.33920164562583
 30
0.0
 10
157.2601979837823
 20
89.37500478580642
 30
0.0
 10
157.1839228780142
 20
89.39450490413171
 30
0.0
 10
157.1319575833115
 20
89.39709263459524
 30
0.0
 10
157.1059217618836
 20
89.3983891477515
 30
0.0
  0
SPLINE
  5
131
330
1F
100
AcDbEntity
  8
0
  6
Continuous
 62
     7
370
    15
100
AcDbSpline
210
0.0
220
0.0
230
1.0
 70
     8
 71
     3
 72
    14
 73
    10
 74
     0
 42
0.000000001
 43
0.00000001
 40
0.0
 40
0.0
 40
0.0
 40
0.0
 40
0.0632545931270271
 40
0.1262373008441474
 40
0.2517386400042063
 40
0.5010466819054366
 40
0.7501447831997966
 40
0.8680369226117716
 40
1.0
 40
1.0
 40
1.0
 40
1.0
 10
157.1059217618836
 20
89.3983891477515
 30
0.0
 10
157.0914904659035
 20
89.39800294440602
 30
0.0
 10
157.0626899035702
 20
89.39723219772186
 30
0.0
 10
157.0056543415354
 20
89.38971448071422
 30
0.0
 10
156.9091873256381
 20
89.36113628712388
 30
0.0
 10
156.7893560944842
 20
89.27678464736339
 30
0.0
 10
156.7114313805305
 20
89.15504928082427
 30
0.0
 10
156.6813494586867
 20
89.04447114493311
 30
0.0
 10
156.6768606206349
 20
88.9875043856301
 30
0.0
 10
156.6744898040845
 20
88.95741692552927
 30
0.0
  0
LINE
  5
132
330
1F
100
AcDbEntity
  8
0
  6
Continuous
 62
     7
370
    15
100
AcDbLine
 10
156.7932131994
 20
88.9574168966
 30
0.0
 11
156.6744898274
 21
88.9574168966
 31
0.0
  0
LINE
  5
133
330
1F
100
AcDbEntity
  8
0
  6
Continuous
 62
     7
370
    15
100
AcDbLine
 10
151.6541907159
 20
89.0082983084
 30
0.0
 11
151.6541907159
 21
88.0415515409
 31
0.0
  0
LINE
  5
134
330
1F
100
AcDbEntity
  8
0
  6
Continuous
 62
     7
370
    15
100
AcDbLine
 10
151.5354674603
 20
89.0082983084
 30
0.0
 11
151.6541907159
 21
89.0082983084
 31
0.0
  0
LINE
  5
135
330
1F
100
AcDbEntity
  8
0
  6
Continuous
 62
     7
370
    15
100
AcDbLine
 10
151.5354674603
 20
88.8294183666
 30
0.0
 11
151.5354674603
 21
89.0082983084
 31
0.0
  0
SPLINE
  5
136
330
1F
100
AcDbEntity
  8
0
  6
Continuous
 62
     7
370
    15
100
AcDbSpline
210
0.0
220
0.0
230
1.0
 70
     8
 71
     3
 72
    13
 73
     9
 74
     0
 42
0.000000001
 43
0.00000001
 40
0.0
 40
0.0
 40
0.0
 40
0.0
 40
0.1255167229825051
 40
0.2507702984616024
 40
0.4997180434736224
 40
0.7492056597880956
 40
0.8744897284691794
 40
1.0
 40
1.0
 40
1.0
 40
1.0
 10
151.535467368187
 20
88.82941837785299
 30
0.0
 10
151.5237270211834
 20
88.84442537115882
 30
0.0
 10
151.5002709409722
 20
88.87440789540648
 30
0.0
 10
151.4466993269158
 20
88.9282860990888
 30
0.0
 10
151.3674403697968
 20
88.98211387249202
 30
0.0
 10
151.2766400806821
 20
89.01246246246438
 30
0.0
 10
151.2013869980888
 20
89.02321726822288
 30
0.0
 10
151.1633514525877
 20
89.02457788425453
 30
0.0
 10
151.1443165268408
 20
89.02525880587116
 30
0.0
  0
SPLINE
  5
137
330
1F
100
AcDbEntity
  8
0
  6
Continuous
 62
     7
370
    15
100
AcDbSpline
210
0.0
220
0.0
230
1.0
 70
     8
 71
     3
 72
    14
 73
    10
 74
     0
 42
0.000000001
 43
0.00000001
 40
0.0
 40
0.0
 40
0.0
 40
0.0
 40
0.0631905168459589
 40
0.1262835808315483
 40
0.2512606839400884
 40
0.5006717729429616
 40
0.7499831426274663
 40
0.8746990735749619
 40
1.0
 40
1.0
 40
1.0
 40
1.0
 10
151.1443165268408
 20
89.02525880587116
 30
0.0
 10
151.1277396910288
 20
89.02467675632275
 30
0.0
 10
151.0946115843178
 20
89.02351355486684
 30
0.0
 10
151.0290472249907
 20
89.015560363427
 30
0.0
 10
150.9179989708524
 20
88.98302252891045
 30
0.0
 10
150.7789299543424
 20
88.8893089813966
 30
0.0
 10
150.6808072872086
 20
88.75291871831341
 30
0.0
 10
150.6424565561723
 20
88.62618240062817
 30
0.0
 10
150.63853021681
 20
88.56049537344039
 30
0.0
 10
150.6365624536571
 20
88.52757501180064
 30
0.0
  0
SPLINE
  5
138
330
1F
100
AcDbEntity
  8
0
  6
Continuous
 62
     7
370
    15
100
AcDbSpline
210
0.0
220
0.0
230
1.0
 70
     8
 71
     3
 72
    16
 73
    12
 74
     0
 42
0.000000001
 43
0.00000001
 40
0.0
 40
0.0
 40
0.0
 40
0.0
 40
0.0630538235622141
 40
0.1258780518906377
 40
0.2507269193025619
 40
0.3931840893504116
 40
0.5007525710187073
 40
0.6652798017143744
 40
0.8293273391961744
 40
0.911445004659504
 40
1.0
 40
1.0
 40
1.0
 40
1.0
 10
150.6365624536571
 20
88.52757501180064
 30
0.0
 10
150.6371163161314
 20
88.51094926927237
 30
0.0
 10
150.6382220243238
 20
88.47775832283233
 30
0.0
 10
150.6467150829703
 20
88.41207004341616
 30
0.0
 10
150.6717165289876
 20
88.32798173168347
 30
0.0
 10
150.7207225008287
 20
88.24098438481434
 30
0.0
 10
150.7927972087905
 20
88.15834637997932
 30
0.0
 10
150.8837791171784
 20
88.08609020122157
 30
0.0
 10
150.9852352031241
 20
88.04388927977614
 30
0.0
 10
151.0723066405954
 20
88.02811343114516
 30
0.0
 10
151.11727447289
 20
88.02579434753922
 30
0.0
 10
151.1406064240097
 20
88.02459107082842
 30
0.0
  0
SPLINE
  5
139
330
1F
100
AcDbEntity
  8
0
  6
Continuous
 62
     7
370
    15
100
AcDbSpline
210
0.0
220
0.0
230
1.0
 70
     8
 71
     3
 72
    14
 73
    10
 74
     0
 42
0.000000001
 43
0.00000001
 40
0.0
 40
0.0
 40
0.0
 40
0.0
 40
0.1253969777133085
 40
0.2505504897806548
 40
0.3098641374829684
 40
0.5000334861467449
 40
0.7491688894051426
 40
0.8744601107931624
 40
1.0
 40
1.0
 40
1.0
 40
1.0
 10
151.1406064240097
 20
88.02459107082842
 30
0.0
 10
151.159454270017
 20
88.02509337076876
 30
0.0
 10
151.1971133678244
 20
88.02609699540442
 30
0.0
 10
151.2432814496355
 20
88.03310366361539
 30
0.0
 10
151.298144254646
 20
88.04573695929385
 30
0.0
 10
151.3692360922996
 20
88.07058569330819
 30
0.0
 10
151.4424478275841
 20
88.11548378095375
 30
0.0
 10
151.4977128337579
 20
88.16662093686763
 30
0.0
 10
151.5228742085871
 20
88.19471181319552
 30
0.0
 10
151.535467368187
 20
88.20877117566282
 30
0.0
  0
LINE
  5
13A
330
1F
100
AcDbEntity
  8
0
  6
Continuous
 62
     7
370
    15
100
AcDbLine
 10
151.5354674603
 20
88.0415515409
 30
0.0
 11
151.5354674603
 21
88.2087711786
 31
0.0
  0
LINE
  5
13B
330
1F
100
AcDbEntity
  8
0
  6
Continuous
 62
     7
370
    15
100
AcDbLine
 10
151.6541907159
 20
88.0415515409
 30
0.0
 11
151.5354674603
 21
88.0415515409
 31
0.0
  0
LINE
  5
13C
330
1F
100
AcDbEntity
  8
0
  6
Continuous
 62
     7
370
    15
100
AcDbLine
 10
150.3991158507
 20
88.5652060521
 30
0.0
 11
150.3991158507
 21
88.0415515409
 31
0.0
  0
SPLINE
  5
13D
330
1F
100
AcDbEntity
  8
0
  6
Continuous
 62
     7
370
    15
100
AcDbSpline
210
0.0
220
0.0
230
1.0
 70
     8
 71
     3
 72
    14
 73
    10
 74
     0
 42
0.000000001
 43
0.00000001
 40
0.0
 40
0.0
 40
0.0
 40
0.0
 40
0.2505918400750428
 40
0.3755402713136752
 40
0.500792784063431
 40
0.6257306687441119
 40
0.7506197376279499
 40
0.8750913414078023
 40
1.0
 40
1.0
 40
1.0
 40
1.0
 10
150.3991158724606
 20
88.56520605480279
 30
0.0
 10
150.3978782136482
 20
88.61893511993883
 30
0.0
 10
150.3960234416571
 20
88.6994542130289
 30
0.0
 10
150.3754907051938
 20
88.80516118435916
 30
0.0
 10
150.343785549903
 20
88.87977177738628
 30
0.0
 10
150.2936706369662
 20
88.94377957569277
 30
0.0
 10
150.2281685360403
 20
88.99142527942354
 30
0.0
 10
150.1520465138975
 20
89.02004765068024
 30
0.0
 10
150.0986012608905
 20
89.0235197257965
 30
0.0
 10
150.07183180128
 20
89.02525880587116
 30
0.0
  0
SPLINE
  5
13E
330
1F
100
AcDbEntity
  8
0
  6
Continuous
 62
     7
370
    15
100
AcDbSpline
210
0.0
220
0.0
230
1.0
 70
     8
 71
     3
 72
    13
 73
     9
 74
     0
 42
0.000000001
 43
0.00000001
 40
0.0
 40
0.0
 40
0.0
 40
0.0
 40
0.1258181512216607
 40
0.2506704865351145
 40
0.4998219693343915
 40
0.7494854761011738
 40
0.8669409371813883
 40
1.0
 40
1.0
 40
1.0
 40
1.0
 10
150.07183180128
 20
89.02525880587116
 30
0.0
 10
150.0531199510318
 20
89.02440628482023
 30
0.0
 10
150.0158398880191
 20
89.02270778691243
 30
0.0
 10
149.9432121234848
 20
89.00541147715305
 30
0.0
 10
149.8588316305973
 20
88.96370990883617
 30
0.0
 10
149.7908594962614
 20
88.90058826963327
 30
0.0
 10
149.7460043860735
 20
88.84110314811286
 30
0.0
 10
149.7272259894834
 20
88.80889465433793
 30
0.0
 10
149.7172519735556
 20
88.79178733485085
 30
0.0
  0
SPLINE
  5
13F
330
1F
100
AcDbEntity
  8
0
  6
Continuous
 62
     7
370
    15
100
AcDbSpline
210
0.0
220
0.0
230
1.0
 70
     8
 71
     3
 72
    15
 73
    11
 74
     0
 42
0.000000001
 43
0.00000001
 40
0.0
 40
0.0
 40
0.0
 40
0.0
 40
0.1256469208020087
 40
0.2507163963687576
 40
0.3507329114534125
 40
0.5000237725409032
 40
0.6254390300118583
 40
0.7503082053935836
 40
0.8679681448341345
 40
1.0
 40
1.0
 40
1.0
 40
1.0
 10
149.7172519735556
 20
88.79178733485085
 30
0.0
 10
149.7112127967592
 20
88.80814198461675
 30
0.0
 10
149.6991621978766
 20
88.84077612182446
 30
0.0
 10
149.6770614319937
 20
88.88431080327044
 30
0.0
 10
149.6468897714056
 20
88.92676630815586
 30
0.0
 10
149.6084290791584
 20
88.96251270761996
 30
0.0
 10
149.5606938200939
 20
88.99104931555415
 30
0.0
 10
149.513316763248
 20
89.01045755762003
 30
0.0
 10
149.462428609981
 20
89.0219087881523
 30
0.0
 10
149.4278584377644
 20
89.02410009051643
 30
0.0
 10
149.4095784459114
 20
89.02525880587116
 30
0.0
  0
SPLINE
  5
140
330
1F
100
AcDbEntity
  8
0
  6
Continuous
 62
     7
370
    15
100
AcDbSpline
210
0.0
220
0.0
230
1.0
 70
     8
 71
     3
 72
    11
 73
     7
 74
     0
 42
0.000000001
 43
0.00000001
 40
0.0
 40
0.0
 40
0.0
 40
0.0
 40
0.2496702420672758
 40
0.4988582896017273
 40
0.7492807465337318
 40
1.0
 40
1.0
 40
1.0
 40
1.0
 10
149.4095784459114
 20
89.02525880587116
 30
0.0
 10
149.3923589053263
 20
89.02441240167212
 30
0.0
 10
149.3579530806958
 20
89.02272122795617
 30
0.0
 10
149.3068132581292
 20
89.0140929263709
 30
0.0
 10
149.2571817557231
 20
88.99860458135922
 30
0.0
 10
149.2259287032894
 20
88.9836927689342
 30
0.0
 10
149.2102929224071
 20
88.97623244703034
 30
0.0
  0
SPLINE
  5
141
330
1F
100
AcDbEntity
  8
0
  6
Continuous
 62
     7
370
    15
100
AcDbSpline
210
0.0
220
0.0
230
1.0
 70
     8
 71
     3
 72
    11
 73
     7
 74
     0
 42
0.000000001
 43
0.00000001
 40
0.0
 40
0.0
 40
0.0
 40
0.0
 40
0.266389206774224
 40
0.4988315969622256
 40
0.7493319875968341
 40
1.0
 40
1.0
 40
1.0
 40
1.0
 10
149.2102929224071
 20
88.97623244703034
 30
0.0
 10
149.1964256592228
 20
88.96628297056341
 30
0.0
 10
149.1704582819275
 20
88.947651910788
 30
0.0
 10
149.1352057666695
 20
88.91491421335371
 30
0.0
 10
149.1046012569197
 20
88.87917148681983
 30
0.0
 10
149.0856686669129
 20
88.8532491716171
 30
0.0
 10
149.0761992057939
 20
88.8402836790015
 30
0.0
  0
LINE
  5
142
330
1F
100
AcDbEntity
  8
0
  6
Continuous
 62
     7
370
    15
100
AcDbLine
 10
149.0761991419
 20
89.0082983084
 30
0.0
 11
149.0761991419
 21
88.8402836996
 31
0.0
  0
LINE
  5
143
330
1F
100
AcDbEntity
  8
0
  6
Continuous
 62
     7
370
    15
100
AcDbLine
 10
148.9574760027
 20
89.0082983084
 30
0.0
 11
149.0761991419
 21
89.0082983084
 31
0.0
  0
SPLINE
  5
144
330
1F
100
AcDbEntity
  8
0
  6
Continuous
 62
     7
370
    15
100
AcDbSpline
210
0.0
220
0.0
230
1.0
 70
     8
 71
     3
 72
     9
 73
     5
 74
     0
 42
0.000000001
 43
0.00000001
 40
0.0
 40
0.0
 40
0.0
 40
0.0
 40
0.5009848292813087
 40
0.9999999999999999
 40
0.9999999999999999
 40
0.9999999999999999
 40
0.9999999999999999
 10
148.9574759151956
 20
89.0082983357857
 30
0.0
 10
148.9575316351793
 20
88.84686064844549
 30
0.0
 10
148.9576428560795
 20
88.52461997786114
 30
0.0
 10
148.9575314890386
 20
88.20236277434289
 30
0.0
 10
148.9574759151956
 20
88.04155154091389
 30
0.0
  0
LINE
  5
145
330
1F
100
AcDbEntity
  8
0
  6
Continuous
 62
     7
370
    15
100
AcDbLine
 10
149.0761991419
 20
88.0415515409
 30
0.0
 11
148.9574760027
 21
88.0415515409
 31
0.0
  0
LINE
  5
146
330
1F
100
AcDbEntity
  8
0
  6
Continuous
 62
     7
370
    15
100
AcDbLine
 10
149.0761991419
 20
88.4483378165
 30
0.0
 11
149.0761991419
 21
88.0415515409
 31
0.0
  0
SPLINE
  5
147
330
1F
100
AcDbEntity
  8
0
  6
Continuous
 62
     7
370
    15
100
AcDbSpline
210
0.0
220
0.0
230
1.0
 70
     8
 71
     3
 72
    15
 73
    11
 74
     0
 42
0.000000001
 43
0.00000001
 40
0.0
 40
0.0
 40
0.0
 40
0.0
 40
0.1254870522018773
 40
0.2508958350317276
 40
0.376047162038679
 40
0.5013022314099742
 40
0.7497542396655842
 40
0.8746784681193869
 40
0.9345375717804436
 40
1.0
 40
1.0
 40
1.0
 40
1.0
 10
149.0761992057939
 20
88.44833781562009
 30
0.0
 10
149.07648631584
 20
88.47448702773053
 30
0.0
 10
149.0770603568547
 20
88.52676914204235
 30
0.0
 10
149.0838309341505
 20
88.60490030795661
 30
0.0
 10
149.098478500901
 20
88.68210437149239
 30
0.0
 10
149.137780837323
 20
88.77924406976761
 30
0.0
 10
149.2147470691813
 20
88.85666973691536
 30
0.0
 10
149.2980173285582
 20
88.8936102796348
 30
0.0
 10
149.3492645890463
 20
88.90392460860885
 30
0.0
 10
149.3753053372863
 20
88.90563965227688
 30
0.0
 10
149.3889078729947
 20
88.90653551527286
 30
0.0
  0
SPLINE
  5
148
330
1F
100
AcDbEntity
  8
0
  6
Continuous
 62
     7
370
    15
100
AcDbSpline
210
0.0
220
0.0
230
1.0
 70
     8
 71
     3
 72
    15
 73
    11
 74
     0
 42
0.000000001
 43
0.00000001
 40
0.0
 40
0.0
 40
0.0
 40
0.0
 40
0.1254198341211825
 40
0.250518547014261
 40
0.3756327395055921
 40
0.5008069554301812
 40
0.6251139687680038
 40
0.7495545869159749
 40
0.8749115634212761
 40
1.0
 40
1.0
 40
1.0
 40
1.0
 10
149.3889078729947
 20
88.90653551527286
 30
0.0
 10
149.4100301618692
 20
88.90528562235447
 30
0.0
 10
149.4522206587355
 20
88.90278903670651
 30
0.0
 10
149.5116175496522
 20
88.87815121358112
 30
0.0
 10
149.5608824400412
 20
88.83749040265893
 30
0.0
 10
149.5952002537855
 20
88.78327381860815
 30
0.0
 10
149.610274148159
 20
88.72170196188075
 30
0.0
 10
149.617613610793
 20
88.6592556927635
 30
0.0
 10
149.6191301726714
 20
88.59622522270618
 30
0.0
 10
149.6189995098754
 20
88.55415348113476
 30
0.0
 10
149.6189342485289
 20
88.53314016604743
 30
0.0
  0
LINE
  5
149
330
1F
100
AcDbEntity
  8
0
  6
Continuous
 62
     7
370
    15
100
AcDbLine
 10
149.6189343571
 20
88.0415515409
 30
0.0
 11
149.6189343571
 21
88.5331401502
 31
0.0
  0
LINE
  5
14A
330
1F
100
AcDbEntity
  8
0
  6
Continuous
 62
     7
370
    15
100
AcDbLine
 10
149.7376574963
 20
88.0415515409
 30
0.0
 11
149.6189343571
 21
88.0415515409
 31
0.0
  0
LINE
  5
14B
330
1F
100
AcDbEntity
  8
0
  6
Continuous
 62
     7
370
    15
100
AcDbLine
 10
149.7376574963
 20
88.4175969538
 30
0.0
 11
149.7376574963
 21
88.0415515409
 31
0.0
  0
SPLINE
  5
14C
330
1F
100
AcDbEntity
  8
0
  6
Continuous
 62
     7
370
    15
100
AcDbSpline
210
0.0
220
0.0
230
1.0
 70
     8
 71
     3
 72
    14
 73
    10
 74
     0
 42
0.000000001
 43
0.00000001
 40
0.0
 40
0.0
 40
0.0
 40
0.0
 40
0.1257483336227633
 40
0.2514681871181329
 40
0.3768418210278794
 40
0.5021358614988723
 40
0.7501221982111451
 40
0.8749865441533172
 40
1.0
 40
1.0
 40
1.0
 40
1.0
 10
149.7376575391272
 20
88.41759696359019
 30
0.0
 10
149.7379255354076
 20
88.44511162426879
 30
0.0
 10
149.7384614672711
 20
88.50013471396461
 30
0.0
 10
149.7440320142015
 20
88.58241634223303
 30
0.0
 10
149.7553374826054
 20
88.6641930368549
 30
0.0
 10
149.7908530716542
 20
88.7683792265102
 30
0.0
 10
149.8686915637705
 20
88.85283742849501
 30
0.0
 10
149.9688880400451
 20
88.89977821361431
 30
0.0
 10
150.02372592443
 20
88.90428218549968
 30
0.0
 10
150.0511612283633
 20
88.90653551527286
 30
0.0
  0
SPLINE
  5
14D
330
1F
100
AcDbEntity
  8
0
  6
Continuous
 62
     7
370
    15
100
AcDbSpline
210
0.0
220
0.0
230
1.0
 70
     8
 71
     3
 72
    14
 73
    10
 74
     0
 42
0.000000001
 43
0.00000001
 40
0.0
 40
0.0
 40
0.0
 40
0.0
 40
0.1253952980386848
 40
0.2506160606325256
 40
0.3759867519634922
 40
0.5012340642956409
 40
0.7494070559351748
 40
0.87478011502695
 40
1.0
 40
1.0
 40
1.0
 40
1.0
 10
150.0511612283633
 20
88.90653551527288
 30
0.0
 10
150.0709655792253
 20
88.9055101011105
 30
0.0
 10
150.1105467156318
 20
88.90346070004111
 30
0.0
 10
150.1669696128671
 20
88.882567805213
 30
0.0
 10
150.215620311047
 20
88.84767336053822
 30
0.0
 10
150.26372567429
 20
88.78355531645123
 30
0.0
 10
150.2772750276996
 20
88.70319432038288
 30
0.0
 10
150.2805147145348
 20
88.62502065194387
 30
0.0
 10
150.2804332761601
 20
88.58548954255609
 30
0.0
 10
150.2803925818622
 20
88.56573606949296
 30
0.0
  0
LINE
  5
14E
330
1F
100
AcDbEntity
  8
0
  6
Continuous
 62
     7
370
    15
100
AcDbLine
 10
150.2803924787
 20
88.0415515409
 30
0.0
 11
150.2803924787
 21
88.5657360911
 31
0.0
  0
LINE
  5
14F
330
1F
100
AcDbEntity
  8
0
  6
Continuous
 62
     7
370
    15
100
AcDbLine
 10
150.3991158507
 20
88.0415515409
 30
0.0
 11
150.2803924787
 21
88.0415515409
 31
0.0
  0
SPLINE
  5
150
330
1F
100
AcDbEntity
  8
0
  6
Continuous
 62
     7
370
    15
100
AcDbSpline
210
0.0
220
0.0
230
1.0
 70
     8
 71
     3
 72
    14
 73
    10
 74
     0
 42
0.000000001
 43
0.00000001
 40
0.0
 40
0.0
 40
0.0
 40
0.0
 40
0.1256204362215934
 40
0.2511804099307512
 40
0.3761978173192574
 40
0.5012325993215038
 40
0.7860181603424133
 40
0.8914418240189445
 40
1.0
 40
1.0
 40
1.0
 40
1.0
 10
146.9354698721934
 20
88.34684000245235
 30
0.0
 10
146.9253466362259
 20
88.33192864898446
 30
0.0
 10
146.9051050367167
 20
88.30211311904885
 30
0.0
 10
146.8711678153932
 20
88.26006883987372
 30
0.0
 10
146.8319277820915
 20
88.22279456147649
 30
0.0
 10
146.7669551324599
 20
88.18156382229003
 30
0.0
 10
146.6962400611913
 20
88.15678021069384
 30
0.0
 10
146.6257028283062
 20
88.14537276572537
 30
0.0
 10
146.5950937403076
 20
88.14400716419617
 30
0.0
 10
146.5795650077437
 20
88.1433143614267
 30
0.0
  0
SPLINE
  5
151
330
1F
100
AcDbEntity
  8
0
  6
Continuous
 62
     7
370
    15
100
AcDbSpline
210
0.0
220
0.0
230
1.0
 70
     8
 71
     3
 72
    13
 73
     9
 74
     0
 42
0.000000001
 43
0.00000001
 40
0.0
 40
0.0
 40
0.0
 40
0.0
 40
0.1260690982423279
 40
0.2514179750803319
 40
0.5007139369693739
 40
0.750082351998299
 40
0.8747868466288623
 40
1.0
 40
1.0
 40
1.0
 40
1.0
 10
146.5795650077437
 20
88.1433143614267
 30
0.0
 10
146.5561712021764
 20
88.14445322813373
 30
0.0
 10
146.5095172377463
 20
88.14672445530483
 30
0.0
 10
146.419598452519
 20
88.17280758828409
 30
0.0
 10
146.3212815980226
 20
88.23980844807195
 30
0.0
 10
146.2560743868413
 20
88.33953823687808
 30
0.0
 10
146.2318166112047
 20
88.42980404541002
 30
0.0
 10
146.2285012739328
 20
88.47622600965943
 30
0.0
 10
146.2268402314349
 20
88.49948423322158
 30
0.0
  0
LINE
  5
152
330
1F
100
AcDbEntity
  8
0
  6
Continuous
 62
     7
370
    15
100
AcDbLine
 10
147.0918240785
 20
88.4994842187
 30
0.0
 11
146.2268400766
 21
88.4994842187
 31
0.0
  0
SPLINE
  5
153
330
1F
100
AcDbEntity
  8
0
  6
Continuous
 62
     7
370
    15
100
AcDbSpline
210
0.0
220
0.0
230
1.0
 70
     8
 71
     3
 72
    11
 73
     7
 74
     0
 42
0.000000001
 43
0.00000001
 40
0.0
 40
0.0
 40
0.0
 40
0.0
 40
0.2507636027949673
 40
0.5001602192935924
 40
0.7492601584812103
 40
1.0
 40
1.0
 40
1.0
 40
1.0
 10
147.0918242057939
 20
88.49948423322158
 30
0.0
 10
147.0906403453178
 20
88.5294235310117
 30
0.0
 10
147.088279077938
 20
88.58913891865689
 30
0.0
 10
147.0690426195421
 20
88.67676166946704
 30
0.0
 10
147.0373393429355
 20
88.76100088245288
 30
0.0
 10
147.0035609148943
 20
88.81026876860462
 30
0.0
 10
146.9866162897949
 20
88.8349835320998
 30
0.0
  0
SPLINE
  5
154
330
1F
100
AcDbEntity
  8
0
  6
Continuous
 62
     7
370
    15
100
AcDbSpline
210
0.0
220
0.0
230
1.0
 70
     8
 71
     3
 72
    14
 73
    10
 74
     0
 42
0.000000001
 43
0.00000001
 40
0.0
 40
0.0
 40
0.0
 40
0.0
 40
0.1260813030337707
 40
0.2512718435674444
 40
0.5008327069219296
 40
0.6252353758602072
 40
0.7498322633524928
 40
0.8678516093234258
 40
1.0
 40
1.0
 40
1.0
 40
1.0
 10
146.9866162897949
 20
88.8349835320998
 30
0.0
 10
146.9746223235428
 20
88.84963634557948
 30
0.0
 10
146.9507191282289
 20
88.87883845063311
 30
0.0
 10
146.8962041700961
 20
88.9308009144904
 30
0.0
 10
146.8327371423605
 20
88.97203237865247
 30
0.0
 10
146.7636135172262
 20
89.00084941721816
 30
0.0
 10
146.7102031652685
 20
89.01457617501535
 30
0.0
 10
146.6545625628089
 20
89.02271856265634
 30
0.0
 10
146.6171063418849
 20
89.02438076534717
 30
0.0
 10
146.5973204998644
 20
89.02525880587116
 30
0.0
  0
SPLINE
  5
155
330
1F
100
AcDbEntity
  8
0
  6
Continuous
 62
     7
370
    15
100
AcDbSpline
210
0.0
220
0.0
230
1.0
 70
     8
 71
     3
 72
    13
 73
     9
 74
     0
 42
0.000000001
 43
0.00000001
 40
0.0
 40
0.0
 40
0.0
 40
0.0
 40
0.1254958282110341
 40
0.2507214360981831
 40
0.4999608136372889
 40
0.7492674853958317
 40
0.8745232882414693
 40
1.0
 40
1.0
 40
1.0
 40
1.0
 10
146.5973204998644
 20
89.02525880587116
 30
0.0
 10
146.5791833321392
 20
89.02470795355426
 30
0.0
 10
146.5429480500294
 20
89.02360743502756
 30
0.0
 10
146.4713309681429
 20
89.01308182749943
 30
0.0
 10
146.3846313668843
 20
88.98528350769787
 30
0.0
 10
146.3075298848073
 20
88.93633710967008
 30
0.0
 10
146.2547727376791
 20
88.88654358024479
 30
0.0
 10
146.231211182743
 20
88.85889185511233
 30
0.0
 10
146.2194200257725
 20
88.84505381121303
 30
0.0
  0
SPLINE
  5
156
330
1F
100
AcDbEntity
  8
0
  6
Continuous
 62
     7
370
    15
100
AcDbSpline
210
0.0
220
0.0
230
1.0
 70
     8
 71
     3
 72
    12
 73
     8
 74
     0
 42
0.000000001
 43
0.00000001
 40
0.0
 40
0.0
 40
0.0
 40
0.0
 40
0.2508559072778438
 40
0.4999214036538336
 40
0.7489448210827816
 40
0.8744072848916737
 40
1.0
 40
1.0
 40
1.0
 40
1.0
 10
146.2194200257725
 20
88.84505381121303
 30
0.0
 10
146.2024239668592
 20
88.82139279995303
 30
0.0
 10
146.1685531534478
 20
88.77423965100257
 30
0.0
 10
146.1337766708264
 20
88.69403808208524
 30
0.0
 10
146.1156721989001
 20
88.623683979081
 30
0.0
 10
146.1095145876913
 20
88.56593533086986
 30
0.0
 10
146.1085829842316
 20
88.53683338640181
 30
0.0
 10
146.1081169408366
 20
88.52227486489893
 30
0.0
  0
SPLINE
  5
157
330
1F
100
AcDbEntity
  8
0
  6
Continuous
 62
     7
370
    15
100
AcDbSpline
210
0.0
220
0.0
230
1.0
 70
     8
 71
     3
 72
    16
 73
    12
 74
     0
 42
0.000000001
 43
0.00000001
 40
0.0
 40
0.0
 40
0.0
 40
0.0
 40
0.0632107875868288
 40
0.1260694332848516
 40
0.251321736919095
 40
0.3763496055700087
 40
0.5017326879512751
 40
0.6616272837565965
 40
0.8181717776757506
 40
0.9043622250863325
 40
0.9999999999999999
 40
0.9999999999999999
 40
0.9999999999999999
 40
0.9999999999999999
 10
146.1081169408366
 20
88.52227486489893
 30
0.0
 10
146.1086379219484
 20
88.50587517960247
 30
0.0
 10
146.1096769818307
 20
88.47316717025302
 30
0.0
 10
146.1179644351311
 20
88.40837012284192
 30
0.0
 10
146.1410920012907
 20
88.32990933707032
 30
0.0
 10
146.1851992242017
 20
88.2425553547819
 30
0.0
 10
146.2489842541551
 20
88.15684774386087
 30
0.0
 10
146.3379954941298
 20
88.08220621438507
 30
0.0
 10
146.4362855717923
 20
88.0430943889335
 30
0.0
 10
146.522675726325
 20
88.02795922633919
 30
0.0
 10
146.5696814230563
 20
88.0257520163202
 30
0.0
 10
146.5944054190684
 20
88.02459107082842
 30
0.0
  0
SPLINE
  5
158
330
1F
100
AcDbEntity
  8
0
  6
Continuous
 62
     7
370
    15
100
AcDbSpline
210
0.0
220
0.0
230
1.0
 70
     8
 71
     3
 72
    15
 73
    11
 74
     0
 42
0.000000001
 43
0.00000001
 40
0.0
 40
0.0
 40
0.0
 40
0.0
 40
0.0631184867615173
 40
0.1260608988840952
 40
0.2514117175700515
 40
0.2625763899444412
 40
0.5011530968135335
 40
0.7501373762063357
 40
0.8677850115665362
 40
1.0
 40
1.0
 40
1.0
 40
1.0
 10
146.5944054190684
 20
88.02459107082842
 30
0.0
 10
146.6059295276039
 20
88.0248297124988
 30
0.0
 10
146.6289455971479
 20
88.02530633012734
 30
0.0
 10
146.6747645625184
 20
88.02850321390937
 30
0.0
 10
146.710785956085
 20
88.03488365191481
 30
0.0
 10
146.7771731715922
 20
88.05178740752696
 30
0.0
 10
146.8627570198475
 20
88.08684649842752
 30
0.0
 10
146.9495977312844
 20
88.15854023379362
 30
0.0
 10
147.0052574069071
 20
88.23122242884156
 30
0.0
 10
147.0285941441274
 20
88.2706109845402
 30
0.0
 10
147.0409427955375
 20
88.29145346732949
 30
0.0
  0
LWPOLYLINE
  5
159
330
1F
100
AcDbEntity
  8
0
  6
Continuous
 62
     7
370
    15
100
AcDbPolyline
 90
        9
 70
   128
 43
0.0
 10
146.9354699194
 20
88.3468400122
 10
146.9486532561
 20
88.3399169967
 10
146.9618370585
 20
88.332993894
 10
146.9750208608
 20
88.326070733
 10
146.9882051289
 20
88.3191474556
 10
147.0013893969
 20
88.3122240909
 10
147.0145736649
 20
88.3053006389
 10
147.027757933
 20
88.2983770995
 10
147.0409426666
 20
88.2914534729
  0
LINE
  5
15A
330
1F
100
AcDbEntity
  8
0
  6
Continuous
 62
     7
370
    15
100
AcDbLine
 10
145.4127374865
 20
88.6860494053
 30
0.0
 11
145.4127374865
 21
88.0415515409
 31
0.0
  0
LINE
  5
15B
330
1F
100
AcDbEntity
  8
0
  6
Continuous
 62
     7
370
    15
100
AcDbLine
 10
145.9385123864
 20
88.6860494053
 30
0.0
 11
145.4127374865
 21
88.6860494053
 31
0.0
  0
LINE
  5
15C
330
1F
100
AcDbEntity
  8
0
  6
Continuous
 62
     7
370
    15
100
AcDbLine
 10
145.9385123864
 20
88.8217331509
 30
0.0
 11
145.9385123864
 21
88.6860494053
 31
0.0
  0
LINE
  5
15D
330
1F
100
AcDbEntity
  8
0
  6
Continuous
 62
     7
370
    15
100
AcDbLine
 10
145.4127374865
 20
88.8217331509
 30
0.0
 11
145.9385123864
 21
88.8217331509
 31
0.0
  0
LINE
  5
15E
330
1F
100
AcDbEntity
  8
0
  6
Continuous
 62
     7
370
    15
100
AcDbLine
 10
145.4127374865
 20
89.228784446
 30
0.0
 11
145.4127374865
 21
88.8217331509
 31
0.0
  0
LINE
  5
15F
330
1F
100
AcDbEntity
  8
0
  6
Continuous
 62
     7
370
    15
100
AcDbLine
 10
145.9385123864
 20
89.228784446
 30
0.0
 11
145.4127374865
 21
89.228784446
 31
0.0
  0
LINE
  5
160
330
1F
100
AcDbEntity
  8
0
  6
Continuous
 62
     7
370
    15
100
AcDbLine
 10
145.9385123864
 20
89.3644682498
 30
0.0
 11
145.9385123864
 21
89.228784446
 31
0.0
  0
LINE
  5
161
330
1F
100
AcDbEntity
  8
0
  6
Continuous
 62
     7
370
    15
100
AcDbLine
 10
145.2940143473
 20
89.3644682498
 30
0.0
 11
145.9385123864
 21
89.3644682498
 31
0.0
  0
LINE
  5
162
330
1F
100
AcDbEntity
  8
0
  6
Continuous
 62
     7
370
    15
100
AcDbLine
 10
145.2940143473
 20
88.0415515409
 30
0.0
 11
145.2940143473
 21
89.3644682498
 31
0.0
  0
LINE
  5
163
330
1F
100
AcDbEntity
  8
0
  6
Continuous
 62
     7
370
    15
100
AcDbLine
 10
145.4127374865
 20
88.0415515409
 30
0.0
 11
145.2940143473
 21
88.0415515409
 31
0.0
  0
SPLINE
  5
164
330
1F
100
AcDbEntity
  8
0
  6
Continuous
 62
     7
370
    15
100
AcDbSpline
210
0.0
220
0.0
230
1.0
 70
     8
 71
     3
 72
    11
 73
     7
 74
     0
 42
0.000000001
 43
0.00000001
 40
0.0
 40
0.0
 40
0.0
 40
0.0
 40
0.2505588865522712
 40
0.4997860901646584
 40
0.7490533074983617
 40
1.0
 40
1.0
 40
1.0
 40
1.0
 10
146.354308764421
 20
88.81590300325364
 30
0.0
 10
146.3721236185055
 20
88.82999618474616
 30
0.0
 10
146.4076586433943
 20
88.85810764458326
 30
0.0
 10
146.4698057381959
 20
88.88609494929499
 30
0.0
 10
146.5355102495462
 20
88.90390195220182
 30
0.0
 10
146.5807299204913
 20
88.90565569817369
 30
0.0
 10
146.6034156688013
 20
88.90653551527286
 30
0.0
  0
SPLINE
  5
165
330
1F
100
AcDbEntity
  8
0
  6
Continuous
 62
     7
370
    15
100
AcDbSpline
210
0.0
220
0.0
230
1.0
 70
     8
 71
     3
 72
    13
 73
     9
 74
     0
 42
0.000000001
 43
0.00000001
 40
0.0
 40
0.0
 40
0.0
 40
0.0
 40
0.1254649056689243
 40
0.2505433883837185
 40
0.5003272439658765
 40
0.7493827321680819
 40
0.8745147310822878
 40
1.0
 40
1.0
 40
1.0
 40
1.0
 10
146.6034156688013
 20
88.90653551527286
 30
0.0
 10
146.6246016537877
 20
88.90535673053623
 30
0.0
 10
146.6669083724389
 20
88.9030027916358
 30
0.0
 10
146.7495359603527
 20
88.8836591213397
 30
0.0
 10
146.8457103080987
 20
88.83621307164059
 30
0.0
 10
146.9200068272654
 20
88.75685371705478
 30
0.0
 10
146.9550627905532
 20
88.67932763304262
 30
0.0
 10
146.9670825592943
 20
88.63860003009856
 30
0.0
 10
146.9731009151956
 20
88.61820752381988
 30
0.0
  0
LINE
  5
166
330
1F
100
AcDbEntity
  8
0
  6
Continuous
 62
     7
370
    15
100
AcDbLine
 10
146.2392955847
 20
88.6182075034
 30
0.0
 11
146.9731009394
 21
88.6182075034
 31
0.0
  0
SPLINE
  5
167
330
1F
100
AcDbEntity
  8
0
  6
Continuous
 62
     7
370
    15
100
AcDbSpline
210
0.0
220
0.0
230
1.0
 70
     8
 71
     3
 72
    11
 73
     7
 74
     0
 42
0.000000001
 43
0.00000001
 40
0.0
 40
0.0
 40
0.0
 40
0.0
 40
0.2696156589303868
 40
0.499332351123063
 40
0.749674115413648
 40
1.0
 40
1.0
 40
1.0
 40
1.0
 10
146.2392955766539
 20
88.61820752381988
 30
0.0
 10
146.2458366614707
 20
88.638000701107
 30
0.0
 10
146.2579508512525
 20
88.67465797016244
 30
0.0
 10
146.282647429021
 20
88.727097505494
 30
0.0
 10
146.3127606636362
 20
88.77526972102062
 30
0.0
 10
146.3404596903366
 20
88.80235886223856
 30
0.0
 10
146.354308764421
 20
88.81590300325364
 30
0.0
  0
SPLINE
  5
168
330
1F
100
AcDbEntity
  8
0
  6
Continuous
 62
     7
370
    15
100
AcDbSpline
210
0.0
220
0.0
230
1.0
 70
     8
 71
     3
 72
    14
 73
    10
 74
     0
 42
0.000000001
 43
0.00000001
 40
0.0
 40
0.0
 40
0.0
 40
0.0
 40
0.126025322688812
 40
0.251562122303936
 40
0.5013399699818194
 40
0.6268280952980617
 40
0.7512537690763963
 40
0.8701880298661551
 40
0.9999999999999999
 40
0.9999999999999999
 40
0.9999999999999999
 40
0.9999999999999999
 10
159.3889600397949
 20
88.37042565616495
 30
0.0
 10
159.3831098720027
 20
88.3551680575421
 30
0.0
 10
159.3714322139398
 20
88.32471200467165
 30
0.0
 10
159.340457648644
 20
88.26749724048804
 30
0.0
 10
159.2975615997913
 20
88.21718788113878
 30
0.0
 10
159.2441275416713
 20
88.18036948060596
 30
0.0
 10
159.2009768761569
 20
88.15948081974598
 30
0.0
 10
159.154004542121
 20
88.14709735312242
 30
0.0
 10
159.1218943572189
 20
88.14461159287923
 30
0.0
 10
159.1051371732084
 20
88.1433143614267
 30
0.0
  0
SPLINE
  5
169
330
1F
100
AcDbEntity
  8
0
  6
Continuous
 62
     7
370
    15
100
AcDbSpline
210
0.0
220
0.0
230
1.0
 70
     8
 71
     3
 72
    16
 73
    12
 74
     0
 42
0.000000001
 43
0.00000001
 40
0.0
 40
0.0
 40
0.0
 40
0.0
 40
0.0319316512632664
 40
0.0634995798707715
 40
0.1268563301081894
 40
0.2527276796263374
 40
0.378638997210264
 40
0.5050881913491172
 40
0.7510117573983432
 40
0.8758003488097151
 40
1.0
 40
1.0
 40
1.0
 40
1.0
 10
159.1051371732084
 20
88.1433143614267
 30
0.0
 10
159.0974353685293
 20
88.14367192913139
 30
0.0
 10
159.0821194878272
 20
88.14438299160776
 30
0.0
 10
159.0517232389196
 20
88.14841229301594
 30
0.0
 10
158.9999819838196
 20
88.16221642825299
 30
0.0
 10
158.9323245918944
 20
88.19985544752593
 30
0.0
 10
158.8677041517918
 20
88.2663188520628
 30
0.0
 10
158.8106078682686
 20
88.37375999447596
 30
0.0
 10
158.7852392362043
 20
88.49323603898766
 30
0.0
 10
158.778123149381
 20
88.6127023928342
 30
0.0
 10
158.7777661647863
 20
88.67295488618905
 30
0.0
 10
158.7775880946828
 20
88.70300987424723
 30
0.0
  0
SPLINE
  5
16A
330
1F
100
AcDbEntity
  8
0
  6
Continuous
 62
     7
370
    15
100
AcDbSpline
210
0.0
220
0.0
230
1.0
 70
     8
 71
     3
 72
    15
 73
    11
 74
     0
 42
0.000000001
 43
0.00000001
 40
0.0
 40
0.0
 40
0.0
 40
0.0
 40
0.2511041411603083
 40
0.3763548727267561
 40
0.501660126802841
 40
0.7496558964821762
 40
0.8125075738027667
 40
0.8750255693620289
 40
0.9324951080594336
 40
1.0
 40
1.0
 40
1.0
 40
1.0
 10
158.7775880946828
 20
88.70300987424723
 30
0.0
 10
158.7786560859093
 20
88.76374751934166
 30
0.0
 10
158.7802567910998
 20
88.85478109841213
 30
0.0
 10
158.7989708405169
 20
88.97495695126113
 30
0.0
 10
158.8342459545991
 20
89.09017263910576
 30
0.0
 10
158.8982242556742
 20
89.18132676222749
 30
0.0
 10
158.9743916937157
 20
89.22984577323791
 30
0.0
 10
159.0146393876639
 20
89.24836702026413
 30
0.0
 10
159.058825446191
 20
89.25907428336257
 30
0.0
 10
159.0888950746494
 20
89.26143191384496
 30
0.0
 10
159.1051371732084
 20
89.26270538706774
 30
0.0
  0
SPLINE
  5
16B
330
1F
100
AcDbEntity
  8
0
  6
Continuous
 62
     7
370
    15
100
AcDbSpline
210
0.0
220
0.0
230
1.0
 70
     8
 71
     3
 72
    17
 73
    13
 74
     0
 42
0.000000001
 43
0.00000001
 40
0.0
 40
0.0
 40
0.0
 40
0.0
 40
0.0360938515108868
 40
0.0717739135513995
 40
0.1433252799387604
 40
0.2145694672623698
 40
0.2861898069412614
 40
0.3931074017989693
 40
0.5005269448000429
 40
0.74966759118831
 40
0.8747818357922658
 40
0.9999999999999999
 40
0.9999999999999999
 40
0.9999999999999999
 40
0.9999999999999999
 10
159.1051371732084
 20
89.26270538706774
 30
0.0
 10
159.1138441058839
 20
89.26227968730298
 30
0.0
 10
159.1311581526534
 20
89.2614331681083
 30
0.0
 10
159.1654387383199
 20
89.2563387931926
 30
0.0
 10
159.2069685182256
 20
89.2437158433012
 30
0.0
 10
159.2529382453538
 20
89.21927907803884
 30
0.0
 10
159.3011809567267
 20
89.18255145787928
 30
0.0
 10
159.3462248985651
 20
89.12905331629538
 30
0.0
 10
159.3979125931938
 20
89.02894583457311
 30
0.0
 10
159.4261245881591
 20
88.91422572420962
 30
0.0
 10
159.4373376791229
 20
88.79389137851776
 30
0.0
 10
159.4384766874408
 20
88.73331209169213
 30
0.0
 10
159.4390464280161
 20
88.70300987424723
 30
0.0
  0
SPLINE
  5
16C
330
1F
100
AcDbEntity
  8
0
  6
Continuous
 62
     7
370
    15
100
AcDbSpline
210
0.0
220
0.0
230
1.0
 70
     8
 71
     3
 72
    11
 73
     7
 74
     0
 42
0.000000001
 43
0.00000001
 40
0.0
 40
0.0
 40
0.0
 40
0.0
 40
0.2701642098186419
 40
0.4999161377850188
 40
0.7500590959968951
 40
0.9999999999999999
 40
0.9999999999999999
 40
0.9999999999999999
 40
0.9999999999999999
 10
159.4390464280161
 20
88.70300987424723
 30
0.0
 10
159.438360353853
 20
88.67257513324547
 30
0.0
 10
159.4370908313427
 20
88.61625820589862
 30
0.0
 10
159.4290310857022
 20
88.53210942757414
 30
0.0
 10
159.4148353773068
 20
88.45091699446053
 30
0.0
 10
159.3975828287219
 20
88.39724887422942
 30
0.0
 10
159.3889600397949
 20
88.37042565616495
 30
0.0
  0
SPLINE
  5
16D
330
1F
100
AcDbEntity
  8
0
  6
Continuous
 62
     7
370
    15
100
AcDbSpline
210
0.0
220
0.0
230
1.0
 70
     8
 71
     3
 72
    16
 73
    12
 74
     0
 42
0.000000001
 43
0.00000001
 40
0.0
 40
0.0
 40
0.0
 40
0.0
 40
0.06322968886748
 40
0.1257238905644082
 40
0.2507457684867785
 40
0.3756593346196991
 40
0.5008212100222917
 40
0.6255721320895056
 40
0.7504881924828183
 40
0.8673457970711318
 40
1.0
 40
1.0
 40
1.0
 40
1.0
 10
147.7872034792981
 20
88.52624997507522
 30
0.0
 10
147.7876121271204
 20
88.53901551223221
 30
0.0
 10
147.7884246693771
 20
88.56439809793315
 30
0.0
 10
147.7959253762623
 20
88.61457730181826
 30
0.0
 10
147.8158219769358
 20
88.6749617097533
 30
0.0
 10
147.8530867490349
 20
88.74126817547315
 30
0.0
 10
147.9015165203451
 20
88.80002413751983
 30
0.0
 10
147.9615783757051
 20
88.84678009167664
 30
0.0
 10
148.0276269594027
 20
88.88084680323324
 30
0.0
 10
148.1008595709773
 20
88.90128559570442
 30
0.0
 10
148.1511089642102
 20
88.90471320801174
 30
0.0
 10
148.1778243059541
 20
88.90653551527286
 30
0.0
  0
SPLINE
  5
16E
330
1F
100
AcDbEntity
  8
0
  6
Continuous
 62
     7
370
    15
100
AcDbSpline
210
0.0
220
0.0
230
1.0
 70
     8
 71
     3
 72
    14
 73
    10
 74
     0
 42
0.000000001
 43
0.00000001
 40
0.0
 40
0.0
 40
0.0
 40
0.0
 40
0.1258548444239898
 40
0.250922536971924
 40
0.4999941593260717
 40
0.6249128607934188
 40
0.7499211329977371
 40
0.8672156485170611
 40
1.0
 40
1.0
 40
1.0
 40
1.0
 10
148.1778243059541
 20
88.90653551527286
 30
0.0
 10
148.203382670153
 20
88.90536986105572
 30
0.0
 10
148.2543395452337
 20
88.90304584313854
 30
0.0
 10
148.3526992645157
 20
88.87536940864253
 30
0.0
 10
148.4399490163269
 20
88.8182311105592
 30
0.0
 10
148.5054770979798
 20
88.74041389100425
 30
0.0
 10
148.5417093552934
 20
88.67456600868312
 30
0.0
 10
148.5626360260986
 20
88.60060469409028
 30
0.0
 10
148.5657380316476
 20
88.54978735639872
 30
0.0
 10
148.5673851032298
 20
88.5228048795891
 30
0.0
  0
SPLINE
  5
16F
330
1F
100
AcDbEntity
  8
0
  6
Continuous
 62
     7
370
    15
100
AcDbSpline
210
0.0
220
0.0
230
1.0
 70
     8
 71
     3
 72
    16
 73
    12
 74
     0
 42
0.000000001
 43
0.00000001
 40
0.0
 40
0.0
 40
0.0
 40
0.0
 40
0.0632654707346446
 40
0.12600994624051
 40
0.2513891485208216
 40
0.3761559785034611
 40
0.5009209256103422
 40
0.6257449861223625
 40
0.7507236954821532
 40
0.8673445309515355
 40
1.0
 40
1.0
 40
1.0
 40
1.0
 10
148.5673851032298
 20
88.5228048795891
 30
0.0
 10
148.5669606478311
 20
88.51000047362042
 30
0.0
 10
148.5661152324514
 20
88.48449710679141
 30
0.0
 10
148.5598096081357
 20
88.43391802515717
 30
0.0
 10
148.5417214454641
 20
88.37265976126487
 30
0.0
 10
148.5051186858907
 20
88.30558710785138
 30
0.0
 10
148.4551760808529
 20
88.24781202077857
 30
0.0
 10
148.3938291196797
 20
88.20255365242923
 30
0.0
 10
148.3272178379955
 20
88.16936500522462
 30
0.0
 10
148.2538982021386
 20
88.14871233849652
 30
0.0
 10
148.2035550224177
 20
88.14518922816906
 30
0.0
 10
148.1767642765738
 20
88.14331436142672
 30
0.0
  0
SPLINE
  5
170
330
1F
100
AcDbEntity
  8
0
  6
Continuous
 62
     7
370
    15
100
AcDbSpline
210
0.0
220
0.0
230
1.0
 70
     8
 71
     3
 72
    17
 73
    13
 74
     0
 42
0.000000001
 43
0.00000001
 40
0.0
 40
0.0
 40
0.0
 40
0.0
 40
0.0630652075991579
 40
0.1257743987310981
 40
0.2508747683290981
 40
0.3755550138644104
 40
0.500529167682979
 40
0.6253184411129732
 40
0.7506948265916298
 40
0.8129030977638558
 40
0.8752122713965096
 40
1.0
 40
1.0
 40
1.0
 40
1.0
 10
148.1767642765738
 20
88.14331436142672
 30
0.0
 10
148.1640595660346
 20
88.14375662720913
 30
0.0
 10
148.1387218657406
 20
88.14463866208987
 30
0.0
 10
148.0885406670812
 20
88.151434311085
 30
0.0
 10
148.0278252296294
 20
88.16982588504031
 30
0.0
 10
147.9606967618868
 20
88.20530103112414
 30
0.0
 10
147.9012029963846
 20
88.25264991299396
 30
0.0
 10
147.8531947785366
 20
88.31178232093694
 30
0.0
 10
147.8225604953096
 20
88.36724783200177
 30
0.0
 10
147.8043611099077
 20
88.41436663716915
 30
0.0
 10
147.7920077811995
 20
88.46331907004989
 30
0.0
 10
147.7891257218921
 20
88.50107077763951
 30
0.0
 10
147.7872034792981
 20
88.52624997507522
 30
0.0
  0
LINE
  5
171
330
1F
100
AcDbEntity
  8
0
  6
Continuous
 62
     7
370
    15
100
AcDbLine
 10
155.8391866103
 20
88.4825237578
 30
0.0
 11
156.2335176687
 21
88.4825237578
 31
0.0
  0
LWPOLYLINE
  5
172
330
1F
100
AcDbEntity
  8
0
  6
Continuous
 62
     7
370
    15
100
AcDbPolyline
 90
        9
 70
   128
 43
0.0
 10
156.2335176687
 20
89.0570597391
 10
156.1842309139
 20
88.9852494717
 10
156.1349427622
 20
88.9134371088
 10
156.0856532134
 20
88.8416227669
 10
156.0363622676
 20
88.7698065041
 10
155.9870701577
 20
88.6979883787
 10
155.9377768837
 20
88.626168507
 10
155.8884822126
 20
88.5543469473
 10
155.8391866103
 20
88.4825237578
  0
LINE
  5
173
330
1F
100
AcDbEntity
  8
0
  6
Continuous
 62
     7
370
    15
100
AcDbLine
 10
156.2335176687
 20
88.4825237578
 30
0.0
 11
156.2335176687
 21
89.0570597391
 31
0.0
  0
SPLINE
  5
174
330
1F
100
AcDbEntity
  8
0
  6
Continuous
 62
     7
370
    15
100
AcDbSpline
210
0.0
220
0.0
230
1.0
 70
     8
 71
     3
 72
    14
 73
    10
 74
     0
 42
0.000000001
 43
0.00000001
 40
0.0
 40
0.0
 40
0.0
 40
0.0
 40
0.1258533518782684
 40
0.2509243902593065
 40
0.4999925275527603
 40
0.6249066659073979
 40
0.749910409661278
 40
0.8682631539971333
 40
1.0
 40
1.0
 40
1.0
 40
1.0
 10
151.1459065709114
 20
88.90653551527286
 30
0.0
 10
151.1714847261657
 20
88.90536900125143
 30
0.0
 10
151.2224820410195
 20
88.90304322434369
 30
0.0
 10
151.3209045804809
 20
88.87531267858014
 30
0.0
 10
151.4081652323758
 20
88.81811657351547
 30
0.0
 10
151.4736519102646
 20
88.74027968349093
 30
0.0
 10
151.5099297963644
 20
88.67425467856316
 30
0.0
 10
151.5308057838628
 20
88.60032723480222
 30
0.0
 10
151.5338590394863
 20
88.54955145761114
 30
0.0
 10
151.535467368187
 20
88.5228048795891
 30
0.0
  0
SPLINE
  5
175
330
1F
100
AcDbEntity
  8
0
  6
Continuous
 62
     7
370
    15
100
AcDbSpline
210
0.0
220
0.0
230
1.0
 70
     8
 71
     3
 72
    16
 73
    12
 74
     0
 42
0.000000001
 43
0.00000001
 40
0.0
 40
0.0
 40
0.0
 40
0.0
 40
0.0722874114739697
 40
0.143923126006535
 40
0.2868944162760113
 40
0.3940029337856092
 40
0.5009468780654357
 40
0.6257612825812054
 40
0.7507419427461736
 40
0.866690747540152
 40
1.0
 40
1.0
 40
1.0
 40
1.0
 10
151.535467368187
 20
88.5228048795891
 30
0.0
 10
151.5349798260048
 20
88.50818136786427
 30
0.0
 10
151.5340091370081
 20
88.47906618061776
 30
0.0
 10
151.5254113684609
 20
88.42154335459325
 30
0.0
 10
151.5039917648619
 20
88.35931561622466
 30
0.0
 10
151.4663588053041
 20
88.29726184762268
 30
0.0
 10
151.4204736194301
 20
88.24577780216516
 30
0.0
 10
151.3620436156886
 20
88.20263308506567
 30
0.0
 10
151.2955363548386
 20
88.16946244814801
 30
0.0
 10
151.2221772719311
 20
88.14876520785964
 30
0.0
 10
151.1717931770643
 20
88.14521376120499
 30
0.0
 10
151.1448465415311
 20
88.1433143614267
 30
0.0
  0
SPLINE
  5
176
330
1F
100
AcDbEntity
  8
0
  6
Continuous
 62
     7
370
    15
100
AcDbSpline
210
0.0
220
0.0
230
1.0
 70
     8
 71
     3
 72
    17
 73
    13
 74
     0
 42
0.000000001
 43
0.00000001
 40
0.0
 40
0.0
 40
0.0
 40
0.0
 40
0.0630724009425742
 40
0.1257767540639561
 40
0.2508798609149936
 40
0.375559102732399
 40
0.5005308175083034
 40
0.625324566250202
 40
0.7506990573623009
 40
0.8217736375603716
 40
0.8752101993096222
 40
1.0
 40
1.0
 40
1.0
 40
1.0
 10
151.1448465415311
 20
88.1433143614267
 30
0.0
 10
151.1321306866238
 20
88.14375582829432
 30
0.0
 10
151.1067731779279
 20
88.14463618592782
 30
0.0
 10
151.0565540778221
 20
88.15144699371406
 30
0.0
 10
150.9958003038136
 20
88.1698631210919
 30
0.0
 10
150.9286532893929
 20
88.20538183175597
 30
0.0
 10
150.8691609755914
 20
88.25276216091538
 30
0.0
 10
150.821203213883
 20
88.31191838077967
 30
0.0
 10
150.7896895563571
 20
88.36891590393202
 30
0.0
 10
150.7719007074242
 20
88.41619355729799
 30
0.0
 10
150.7599387280457
 20
88.46515850811183
 30
0.0
 10
150.7572019619047
 20
88.50109094755835
 30
0.0
 10
150.7552857442554
 20
88.52624997507522
 30
0.0
  0
SPLINE
  5
177
330
1F
100
AcDbEntity
  8
0
  6
Continuous
 62
     7
370
    15
100
AcDbSpline
210
0.0
220
0.0
230
1.0
 70
     8
 71
     3
 72
    17
 73
    13
 74
     0
 42
0.000000001
 43
0.00000001
 40
0.0
 40
0.0
 40
0.0
 40
0.0
 40
0.0632049317793414
 40
0.1256997277206511
 40
0.2506956632218937
 40
0.3755795797055819
 40
0.5007217898278656
 40
0.6254499743890951
 40
0.750351309404786
 40
0.8333082711810107
 40
0.912347209960832
 40
1.0
 40
1.0
 40
1.0
 40
1.0
 10
150.7552857442554
 20
88.52624997507522
 30
0.0
 10
150.7556933078043
 20
88.53900278709528
 30
0.0
 10
150.7565038557423
 20
88.56436512755617
 30
0.0
 10
150.7640018837582
 20
88.61450297667906
 30
0.0
 10
150.783858403329
 20
88.67485265392017
 30
0.0
 10
150.8210875086432
 20
88.74113455207322
 30
0.0
 10
150.869476332179
 20
88.79990497715976
 30
0.0
 10
150.9295170500253
 20
88.84669025937407
 30
0.0
 10
150.9895181640386
 20
88.87766577684567
 30
0.0
 10
151.0449509170493
 20
88.89484955939314
 30
0.0
 10
151.0946684052521
 20
88.90357605628748
 30
0.0
 10
151.128248757027
 20
88.90551561974597
 30
0.0
 10
151.1459065709114
 20
88.90653551527286
 30
0.0
  0
INSERT
  5
183
330
1F
100
AcDbEntity
  8
0
  6
Continuous
 62
     7
370
     0
100
AcDbBlockReference
  2
SW_CENTERMARKSYMBOL_1
 10
153.5113621331
 20
88.0415515409
 30
0.0
  0
LINE
  5
184
330
1F
100
AcDbEntity
  8
0
  6
Continuous
 62
     7
370
    15
100
AcDbLine
 10
277.9700231321
 20
88.7635790119
 30
0.0
 11
277.9700231321
 21
90.9064972637
 31
0.0
  0
LINE
  5
185
330
1F
100
AcDbEntity
  8
0
  6
Continuous
 62
     7
370
    15
100
AcDbLine
 10
207.9700231321
 20
90.9064972637
 30
0.0
 11
207.9700231321
 21
88.7635790119
 31
0.0
  0
LWPOLYLINE
  5
186
330
1F
100
AcDbEntity
  8
0
  6
Continuous
 62
     7
370
    15
100
AcDbPolyline
 90
      143
 70
   128
 43
0.0
 10
273.9246573908
 20
82.4936909497
 10
273.1718373523
 20
81.7967211072
 10
272.3598958442
 20
81.1175840793
 10
271.4904222802
 20
80.4576093087
 10
270.5651186954
 20
79.8180887269
 10
269.5857964153
 20
79.2002742256
 10
268.554372509
 20
78.6053752056
 10
267.4728660374
 20
78.0345562096
 10
266.3433941002
 20
77.4889346428
 10
265.1681676917
 20
76.9695785848
 10
263.9494873728
 20
76.4775046997
 10
262.6897387674
 20
76.0136762451
 10
261.3913878927
 20
75.579001187
 10
260.0569763313
 20
75.1743304222
 10
258.6891162567
 20
74.8004561128
 10
257.2904853191
 20
74.4581101353
 10
255.8638214043
 20
74.1479626481
 10
254.4119172738
 20
73.8706207793
 10
252.9376150983
 20
73.6266274387
 10
251.4438008934
 20
73.4164602548
 10
249.9333988707
 20
73.2405306397
 10
248.4093657129
 20
73.0991829838
 10
246.8746847866
 20
72.9926939819
 10
245.3323603017
 20
72.9212720911
 10
243.7854114309
 20
72.8850571232
 10
242.2368663992
 20
72.8841199707
 10
240.6897565562
 20
72.918462468
 10
239.1471104422
 20
72.9880173882
 10
237.6119478592
 20
73.0926485742
 10
236.0872739602
 20
73.2321512055
 10
234.576073366
 20
73.4062521992
 10
233.0813043226
 20
73.6146107444
 10
231.6058929106
 20
73.8568189696
 10
230.1527273172
 20
74.1324027406
 10
228.7246521822
 20
74.4408225894
 10
227.3244630299
 20
74.7814747696
 10
225.9549007962
 20
75.1536924386
 10
224.6186464634
 20
75.5567469627
 10
223.3183158123
 20
75.9898493439
 10
222.0564543011
 20
76.4521517639
 10
220.835532083
 20
76.942749244
 10
219.6579391706
 20
77.4606814166
 10
218.5259807572
 20
78.0049344051
 10
217.4418727047
 20
78.5744428087
 10
216.4077372055
 20
79.1680917881
 10
215.4255986283
 20
79.7847192474
 10
214.4973795556
 20
80.4231181095
 10
213.6248970197
 20
81.0820386785
 10
212.8098589463
 20
81.7601910866
 10
212.0538608106
 20
82.4562478186
 10
211.3583825144
 20
83.1688463106
 10
210.7247854893
 20
83.8965916178
 10
210.1543100311
 20
84.6380591445
 10
209.6480728723
 20
85.3917974331
 10
209.2070649959
 20
86.1563310056
 10
208.8321496956
 20
86.9301632517
 10
208.5240608857
 20
87.7117793583
 10
208.2834016644
 20
88.4996492752
 10
208.1106431335
 20
89.2922307101
 10
208.006123476
 20
90.0879721475
 10
207.970047294
 20
90.8853158864
 10
208.0024852083
 20
91.6827010887
 10
208.1033737202
 20
92.4785668357
 10
208.2725153356
 20
93.2713551826
 10
208.5095789519
 20
94.0595142091
 10
208.8141005059
 20
94.8415010568
 10
209.1854838825
 20
95.6157849499
 10
209.6230020812
 20
96.3808501911
 10
210.1257986396
 20
97.1351991294
 10
210.6928893097
 20
97.8773550913
 10
211.3231639851
 20
98.6058652717
 10
212.0153888734
 20
99.3193035776
 10
212.7682089118
 20
100.0162734201
 10
213.5801504199
 20
100.695410448
 10
214.449623984
 20
101.3553852186
 10
215.3749275687
 20
101.9949058004
 10
216.3542498489
 20
102.6127203017
 10
217.3856737551
 20
103.2076193217
 10
218.4671802267
 20
103.7784383177
 10
219.5966521639
 20
104.3240598845
 10
220.7718785725
 20
104.8434159425
 10
221.9905588914
 20
105.3354898276
 10
223.2503074967
 20
105.7993182823
 10
224.5486583715
 20
106.2339933404
 10
225.8830699328
 20
106.6386641051
 10
227.2509300075
 20
107.0125384145
 10
228.6495609451
 20
107.354884392
 10
230.0762248599
 20
107.6650318792
 10
231.5281289903
 20
107.942373748
 10
233.0024311658
 20
108.1863670886
 10
234.4962453707
 20
108.3965342725
 10
236.0066473935
 20
108.5724638876
 10
237.5306805513
 20
108.7138115435
 10
239.0653614776
 20
108.8203005454
 10
240.6076859625
 20
108.8917224362
 10
242.1546348333
 20
108.9279374041
 10
243.703179865
 20
108.9288745566
 10
245.2502897079
 20
108.8945320593
 10
246.792935822
 20
108.8249771391
 10
248.3280984049
 20
108.7203459532
 10
249.8527723039
 20
108.5808433218
 10
251.3639728982
 20
108.4067423281
 10
252.8587419416
 20
108.1983837829
 10
254.3341533536
 20
107.9561755577
 10
255.787318947
 20
107.6805917867
 10
257.2153940819
 20
107.3721719379
 10
258.6155832343
 20
107.0315197577
 10
259.985145468
 20
106.6593020887
 10
261.3213998007
 20
106.2562475646
 10
262.6217304519
 20
105.8231451834
 10
263.8835919631
 20
105.3608427634
 10
265.1045141812
 20
104.8702452833
 10
266.2821070936
 20
104.3523131107
 10
267.4140655069
 20
103.8080601222
 10
268.4981735595
 20
103.2385517186
 10
269.5323090587
 20
102.6449027392
 10
270.5144476359
 20
102.0282752799
 10
271.4426667086
 20
101.3898764178
 10
272.3151492444
 20
100.7309558488
 10
273.1301873179
 20
100.0528034407
 10
273.8861854536
 20
99.3567467087
 10
274.5816637497
 20
98.6441482167
 10
275.2152607749
 20
97.9164029095
 10
275.7857362331
 20
97.1749353829
 10
276.2919733919
 20
96.4211970942
 10
276.7329812683
 20
95.6566635217
 10
277.1078965686
 20
94.8828312756
 10
277.4159853785
 20
94.101215169
 10
277.6566445998
 20
93.3133452521
 10
277.8294031306
 20
92.5207638172
 10
277.9339227881
 20
91.7250223798
 10
277.9699989701
 20
90.9276786409
 10
277.9375610559
 20
90.1302934386
 10
277.836672544
 20
89.3344276916
 10
277.6675309286
 20
88.5416393447
 10
277.4304673123
 20
87.7534803182
 10
277.1259457582
 20
86.9714934705
 10
276.7545623816
 20
86.1972095775
 10
276.317044183
 20
85.4321443362
 10
275.8142476246
 20
84.6777953979
 10
275.2471569544
 20
83.935639436
 10
274.6168822791
 20
83.2071292556
 10
273.9246573908
 20
82.4936909497
  0
LWPOLYLINE
  5
187
330
1F
100
AcDbEntity
  8
0
  6
Continuous
 62
     7
370
    15
100
AcDbPolyline
 90
       62
 70
   128
 43
0.0
 10
273.9246573908
 20
80.350772698
 10
273.1718373523
 20
79.6538028555
 10
272.3598958442
 20
78.9746658276
 10
271.4904222802
 20
78.314691057
 10
270.5651186954
 20
77.6751704752
 10
269.5857964153
 20
77.0573559738
 10
268.554372509
 20
76.4624569538
 10
267.4728660374
 20
75.8916379579
 10
266.3433941002
 20
75.346016391
 10
265.1681676917
 20
74.8266603331
 10
263.9494873728
 20
74.3345864479
 10
262.6897387674
 20
73.8707579933
 10
261.3913878927
 20
73.4360829352
 10
260.0569763313
 20
73.0314121704
 10
258.6891162567
 20
72.6575378611
 10
257.2904853191
 20
72.3151918836
 10
255.8638214043
 20
72.0050443963
 10
254.4119172738
 20
71.7277025275
 10
252.9376150983
 20
71.483709187
 10
251.4438008934
 20
71.2735420031
 10
249.9333988707
 20
71.097612388
 10
248.4093657129
 20
70.9562647321
 10
246.8746847866
 20
70.8497757302
 10
245.3323603017
 20
70.7783538394
 10
243.7854114309
 20
70.7421388715
 10
242.2368663992
 20
70.7412017189
 10
240.6897565562
 20
70.7755442163
 10
239.1471104422
 20
70.8450991364
 10
237.6119478592
 20
70.9497303224
 10
236.0872739602
 20
71.0892329537
 10
234.576073366
 20
71.2633339474
 10
233.0813043226
 20
71.4716924927
 10
231.6058929106
 20
71.7139007178
 10
230.1527273172
 20
71.9894844889
 10
228.7246521822
 20
72.2979043377
 10
227.3244630299
 20
72.6385565179
 10
225.9549007962
 20
73.0107741868
 10
224.6186464634
 20
73.413828711
 10
223.3183158123
 20
73.8469310922
 10
222.0564543011
 20
74.3092335122
 10
220.835532083
 20
74.7998309922
 10
219.6579391706
 20
75.3177631648
 10
218.5259807572
 20
75.8620161533
 10
217.4418727047
 20
76.431524557
 10
216.4077372055
 20
77.0251735363
 10
215.4255986283
 20
77.6418009956
 10
214.4973795556
 20
78.2801998577
 10
213.6248970197
 20
78.9391204268
 10
212.8098589463
 20
79.6172728349
 10
212.0538608106
 20
80.3133295668
 10
211.3583825144
 20
81.0259280589
 10
210.7247854893
 20
81.753673366
 10
210.1543100311
 20
82.4951408927
 10
209.6480728723
 20
83.2488791813
 10
209.2070649959
 20
84.0134127539
 10
208.8321496956
 20
84.7872449999
 10
208.5240608857
 20
85.5688611065
 10
208.2834016644
 20
86.3567310234
 10
208.1106431335
 20
87.1493124583
 10
208.006123476
 20
87.9450538958
 10
207.970047294
 20
88.7423976346
 10
207.9700231321
 20
88.7635790119
  0
ARC
  5
188
330
1F
100
AcDbEntity
  8
0
  6
Continuous
 62
     7
370
    15
100
AcDbCircle
 10
265.9311054839
 20
89.3735631
 30
0.0
 40
12.05436098381282
100
AcDbArc
 50
311.5386647923
 51
357.0994359134
  0
LINE
  5
189
330
1F
100
AcDbEntity
  8
0
  6
Continuous
 62
     7
370
    15
100
AcDbLine
 10
280.9292154806
 20
155.6555791711
 30
0.0
 11
280.3893373609
 21
155.6555791711
 31
0.0
  0
ARC
  5
18A
330
1F
100
AcDbEntity
  8
0
  6
Continuous
 62
     7
370
    15
100
AcDbCircle
 10
245.9292154806
 20
80.2389125044
 30
0.0
 40
82.91666666666694
100
AcDbArc
 50
65.4429270021
 51
90.5977075573
  0
LINE
  5
18B
330
1F
100
AcDbEntity
  8
0
  6
Continuous
 62
     7
370
    15
100
AcDbLine
 10
245.0642473832
 20
163.6510674716
 30
0.0
 11
245.0642473832
 21
163.1510674716
 31
0.0
  0
ARC
  5
18C
330
1F
100
AcDbEntity
  8
0
  6
Continuous
 62
     7
370
    15
100
AcDbCircle
 10
245.9292154806
 20
80.7389125044
 30
0.0
 40
82.91666666666666
100
AcDbArc
 50
90.5977075697
 51
90.6792688764
  0
LINE
  5
18D
330
1F
100
AcDbEntity
  8
0
  6
Continuous
 62
     7
370
    15
100
AcDbLine
 10
244.9462243829
 20
163.1497522034
 30
0.0
 11
244.9462243829
 21
163.6497522034
 31
0.0
  0
ARC
  5
18E
330
1F
100
AcDbEntity
  8
0
  6
Continuous
 62
     7
370
    15
100
AcDbCircle
 10
245.9292154806
 20
80.2389125044
 30
0.0
 40
82.91666666666694
100
AcDbArc
 50
90.6792711917
 51
114.5570729979
  0
LINE
  5
18F
330
1F
100
AcDbEntity
  8
0
  6
Continuous
 62
     7
370
    15
100
AcDbLine
 10
211.4690936004
 20
155.6555791711
 30
0.0
 11
210.9292154806
 21
155.6555791711
 31
0.0
  0
LINE
  5
190
330
1F
100
AcDbEntity
  8
0
  6
Continuous
 62
     7
370
    15
100
AcDbLine
 10
210.9292154806
 20
155.6555791711
 30
0.0
 11
210.9292154806
 21
158.1555791711
 31
0.0
  0
ARC
  5
191
330
1F
100
AcDbEntity
  8
0
  6
Continuous
 62
     7
370
    15
100
AcDbCircle
 10
245.9292154806
 20
80.2389125044
 30
0.0
 40
85.41666666666693
100
AcDbArc
 50
65.810485846
 51
114.189514154
  0
LINE
  5
192
330
1F
100
AcDbEntity
  8
0
  6
Continuous
 62
     7
370
    15
100
AcDbLine
 10
280.9292154806
 20
158.1555791711
 30
0.0
 11
280.9292154806
 21
155.6555791711
 31
0.0
  0
SPLINE
  5
193
330
1F
100
AcDbEntity
  8
0
  6
Continuous
 62
     7
370
    15
100
AcDbSpline
210
0.0
220
0.0
230
1.0
 70
     8
 71
     3
 72
    14
 73
    10
 74
     0
 42
0.000000001
 43
0.00000001
 40
0.0
 40
0.0
 40
0.0
 40
0.0
 40
0.0171016076188047
 40
0.0827476205403876
 40
0.2139996675590457
 40
0.4753419773801665
 40
0.7368404960716272
 40
0.8683158990020454
 40
1.0
 40
1.0
 40
1.0
 40
1.0
 10
244.9462184182927
 20
163.1497521328294
 30
0.0
 10
244.9463232854607
 20
163.1497533138142
 30
0.0
 10
244.9468306944025
 20
163.1497590281122
 30
0.0
 10
244.9489427154891
 20
163.1497766229429
 30
0.0
 10
244.9596365521147
 20
163.1498575926446
 30
0.0
 10
244.9908541376539
 20
163.1500761079452
 30
0.0
 10
245.0433500920236
 20
163.1504407648486
 30
0.0
 10
245.0948510227649
 20
163.1507950932283
 30
0.0
 10
245.1228386216478
 20
163.1509743334185
 30
0.0
 10
245.1368435188412
 20
163.1510640245866
 30
0.0
  0
LINE
  5
194
330
1F
100
AcDbEntity
  8
0
  6
Continuous
 62
     7
370
    15
100
AcDbLine
 10
244.9624686858
 20
163.1492141784
 30
0.0
 11
245.1368435188
 21
163.1510640246
 31
0.0
  0
LINE
  5
195
330
1F
100
AcDbEntity
  8
0
  6
Continuous
 62
     7
370
    15
100
AcDbLine
 10
244.9624686858
 20
163.1486312998
 30
0.0
 11
244.9624686858
 21
163.1492141784
 31
0.0
  0
ARC
  5
196
330
1F
100
AcDbEntity
  8
0
  6
Continuous
 62
     7
370
    15
100
AcDbCircle
 10
245.9292154806
 20
80.2389125044
 30
0.0
 40
82.91535485115115
100
AcDbArc
 50
90.0
 51
90.6680519714
  0
LINE
  5
197
330
1F
100
AcDbEntity
  8
0
  6
Continuous
 62
     7
370
    15
100
AcDbLine
 10
245.9292154806
 20
163.1548501945
 30
0.0
 11
245.9292154806
 21
163.1542673556
 31
0.0
  0
ARC
  5
198
330
1F
100
AcDbEntity
  8
0
  6
Continuous
 62
     7
370
    15
100
AcDbCircle
 10
245.9292154806
 20
80.2389125044
 30
0.0
 40
82.91593769009434
100
AcDbArc
 50
90.0
 51
90.2415397481
  0
SPLINE
  5
199
330
1F
100
AcDbEntity
  8
0
  6
Continuous
 62
     7
370
    15
100
AcDbSpline
210
0.0
220
0.0
230
1.0
 70
     8
 71
     3
 72
    10
 73
     6
 74
     0
 42
0.000000001
 43
0.00000001
 40
0.0
 40
0.0
 40
0.0
 40
0.0
 40
0.5001105823507193
 40
0.7501594763471466
 40
1.0
 40
1.0
 40
1.0
 40
1.0
 10
245.579670792479
 20
163.154113411973
 30
0.0
 10
245.5362544710096
 20
163.1539133007258
 30
0.0
 10
245.4711305441665
 20
163.1536131364147
 30
0.0
 10
245.3843022013305
 20
163.1530961874229
 30
0.0
 10
245.3415805322717
 20
163.1528243144835
 30
0.0
 10
245.3202286016403
 20
163.1526884346766
 30
0.0
  0
SPLINE
  5
19A
330
1F
100
AcDbEntity
  8
0
  6
Continuous
 62
     7
370
    15
100
AcDbSpline
210
0.0
220
0.0
230
1.0
 70
     8
 71
     3
 72
    13
 73
     9
 74
     0
 42
0.000000001
 43
0.00000001
 40
0.0
 40
0.0
 40
0.0
 40
0.0
 40
0.1368677056427808
 40
0.2509503312970454
 40
0.500951807226979
 40
0.750196466245787
 40
0.8669350739787501
 40
0.9999999999999999
 40
0.9999999999999999
 40
0.9999999999999999
 40
0.9999999999999999
 10
245.3202286016403
 20
163.1526884346766
 30
0.0
 10
245.3008704929645
 20
163.1525675356882
 30
0.0
 10
245.2653769208125
 20
163.152345864396
 30
0.0
 10
245.1999807844322
 20
163.1519307613056
 30
0.0
 10
245.1328804154924
 20
163.1515139882484
 30
0.0
 10
245.0861811305751
 20
163.1512049329891
 30
0.0
 10
245.0675002992845
 20
163.1510892910446
 30
0.0
 10
245.0653675666949
 20
163.1510749457208
 30
0.0
 10
245.0642315062878
 20
163.1510673042779
 30
0.0
  0
LINE
  5
19B
330
1F
100
AcDbEntity
  8
0
  6
Continuous
 62
     7
370
    15
100
AcDbLine
 10
245.064247418
 20
163.151067472
 30
0.0
 11
245.0642315063
 21
163.1510673043
 31
0.0
  0
LINE
  5
19C
330
1F
100
AcDbEntity
  8
0
  6
Continuous
 62
     7
370
    15
100
AcDbLine
 10
211.4690936004
 20
155.6555791711
 30
0.0
 11
280.3893373609
 21
155.6555791711
 31
0.0
  0
ARC
  5
19D
330
1F
100
AcDbEntity
  8
0
  6
Continuous
 62
     7
370
    15
100
AcDbCircle
 10
245.9292154806
 20
80.2389125044
 30
0.0
 40
82.5202150559053
100
AcDbArc
 50
90.0
 51
90.447494991
  0
LINE
  5
19E
330
1F
100
AcDbEntity
  8
0
  6
Continuous
 62
     7
370
    15
100
AcDbLine
 10
245.2847176174
 20
162.806522244
 30
0.0
 11
245.2847176174
 21
162.7566106993
 31
0.0
  0
ARC
  5
19F
330
1F
100
AcDbEntity
  8
0
  6
Continuous
 62
     7
370
    15
100
AcDbCircle
 10
245.9292154806
 20
80.2389125044
 30
0.0
 40
82.5701250792727
100
AcDbArc
 50
90.4472244944
 51
90.541379578
  0
LINE
  5
1A0
330
1F
100
AcDbEntity
  8
0
  6
Continuous
 62
     7
370
    15
100
AcDbLine
 10
245.1490338567
 20
162.7554393915
 30
0.0
 11
245.1490338567
 21
162.8053516443
 31
0.0
  0
ARC
  5
1A1
330
1F
100
AcDbEntity
  8
0
  6
Continuous
 62
     7
370
    15
100
AcDbCircle
 10
245.9292154806
 20
80.2389125044
 30
0.0
 40
82.5202150559053
100
AcDbArc
 50
90.5417070259
 51
90.8243529381
  0
LINE
  5
1A2
330
1F
100
AcDbEntity
  8
0
  6
Continuous
 62
     7
370
    15
100
AcDbLine
 10
244.7419825747
 20
162.8005018401
 30
0.0
 11
244.7419825747
 21
162.7505866536
 31
0.0
  0
ARC
  5
1A3
330
1F
100
AcDbEntity
  8
0
  6
Continuous
 62
     7
370
    15
100
AcDbCircle
 10
245.9292154806
 20
80.2389125044
 30
0.0
 40
82.5701250792727
100
AcDbArc
 50
90.8238546185
 51
90.9180170766
  0
LINE
  5
1A4
330
1F
100
AcDbEntity
  8
0
  6
Continuous
 62
     7
370
    15
100
AcDbLine
 10
244.606298814
 20
162.7367833767
 30
0.0
 11
244.606298814
 21
162.7984391934
 31
0.0
  0
ARC
  5
1A5
330
1F
100
AcDbEntity
  8
0
  6
Continuous
 62
     7
370
    15
100
AcDbCircle
 10
245.9292154806
 20
80.2389125044
 30
0.0
 40
82.5084771824164
100
AcDbArc
 50
90.0
 51
90.9187030506
  0
LINE
  5
1A6
330
1F
100
AcDbEntity
  8
0
  6
Continuous
 62
     7
370
    15
100
AcDbLine
 10
245.9292154806
 20
162.7591275603
 30
0.0
 11
245.9292154806
 21
162.7473896868
 31
0.0
  0
SPLINE
  5
1A7
330
1F
100
AcDbEntity
  8
0
  6
Continuous
 62
     7
370
    15
100
AcDbSpline
210
0.0
220
0.0
230
1.0
 70
     8
 71
     3
 72
    14
 73
    10
 74
     0
 42
0.000000001
 43
0.00000001
 40
0.0
 40
0.0
 40
0.0
 40
0.0
 40
0.1256204362215934
 40
0.2511804099307512
 40
0.3761978173192574
 40
0.5012325993215038
 40
0.7860181603424133
 40
0.8914418240189445
 40
1.0
 40
1.0
 40
1.0
 40
1.0
 10
245.6239270191083
 20
162.8938461202667
 30
0.0
 10
245.6388383725762
 20
162.8930923969092
 30
0.0
 10
245.6686539025118
 20
162.8915853129696
 30
0.0
 10
245.7106981816869
 20
162.8889856418393
 30
0.0
 10
245.7479724600842
 20
162.8859142881836
 30
0.0
 10
245.7892031992706
 20
162.8807285198472
 30
0.0
 10
245.8139868108668
 20
162.8749629909534
 30
0.0
 10
245.8253942558353
 20
162.8691213721852
 30
0.0
 10
245.8267598573645
 20
162.8665602090771
 30
0.0
 10
245.8274526601339
 20
162.8652608689282
 30
0.0
  0
SPLINE
  5
1A8
330
1F
100
AcDbEntity
  8
0
  6
Continuous
 62
     7
370
    15
100
AcDbSpline
210
0.0
220
0.0
230
1.0
 70
     8
 71
     3
 72
    13
 73
     9
 74
     0
 42
0.000000001
 43
0.00000001
 40
0.0
 40
0.0
 40
0.0
 40
0.0
 40
0.1260690982423279
 40
0.2514179750803319
 40
0.5007139369693739
 40
0.750082351998299
 40
0.8747868466288623
 40
1.0
 40
1.0
 40
1.0
 40
1.0
 10
245.8274526601339
 20
162.8652608689282
 30
0.0
 10
245.8263137934269
 20
162.8632910730153
 30
0.0
 10
245.8240425662558
 20
162.859362734456
 30
0.0
 10
245.7979594332765
 20
162.8516649880603
 30
0.0
 10
245.7309585734887
 20
162.8430527611176
 30
0.0
 10
245.6312287846825
 20
162.8370311318985
 30
0.0
 10
245.5409629761506
 20
162.8345124978617
 30
0.0
 10
245.4945410119012
 20
162.8339741358431
 30
0.0
 10
245.471282788339
 20
162.8337044069682
 30
0.0
  0
LINE
  5
1A9
330
1F
100
AcDbEntity
  8
0
  6
Continuous
 62
     7
370
    15
100
AcDbLine
 10
245.4712827883
 20
162.9054319761
 30
0.0
 11
245.4712827883
 21
162.833704407
 31
0.0
  0
SPLINE
  5
1AA
330
1F
100
AcDbEntity
  8
0
  6
Continuous
 62
     7
370
    15
100
AcDbSpline
210
0.0
220
0.0
230
1.0
 70
     8
 71
     3
 72
    11
 73
     7
 74
     0
 42
0.000000001
 43
0.00000001
 40
0.0
 40
0.0
 40
0.0
 40
0.0
 40
0.2507636027949673
 40
0.5001602192935924
 40
0.7492601584812103
 40
1.0
 40
1.0
 40
1.0
 40
1.0
 10
245.471282788339
 20
162.9054319760963
 30
0.0
 10
245.4413434905489
 20
162.9051648710168
 30
0.0
 10
245.3816281029038
 20
162.9046321169263
 30
0.0
 10
245.2940053520936
 20
162.9025015004101
 30
0.0
 10
245.2097661391078
 20
162.8993412230753
 30
0.0
 10
245.160498252956
 20
162.8962204911683
 30
0.0
 10
245.1357834894609
 20
162.8946550058789
 30
0.0
  0
SPLINE
  5
1AB
330
1F
100
AcDbEntity
  8
0
  6
Continuous
 62
     7
370
    15
100
AcDbSpline
210
0.0
220
0.0
230
1.0
 70
     8
 71
     3
 72
    14
 73
    10
 74
     0
 42
0.000000001
 43
0.00000001
 40
0.0
 40
0.0
 40
0.0
 40
0.0
 40
0.1260813030337707
 40
0.2512718435674444
 40
0.5008327069219296
 40
0.6252353758602072
 40
0.7498322633524928
 40
0.8678516093234258
 40
1.0
 40
1.0
 40
1.0
 40
1.0
 10
245.1357834894609
 20
162.8946550058789
 30
0.0
 10
245.1211306759812
 20
162.893563776743
 30
0.0
 10
245.0919285709275
 20
162.8913890279886
 30
0.0
 10
245.0399661070702
 20
162.886506907165
 30
0.0
 10
244.9987346429082
 20
162.8809495023217
 30
0.0
 10
244.9699176043425
 20
162.8749961177978
 30
0.0
 10
244.9561908465453
 20
162.8704561137318
 30
0.0
 10
244.9480484589043
 20
162.8657638510921
 30
0.0
 10
244.9463862562135
 20
162.8626174006973
 30
0.0
 10
244.9455082156895
 20
162.860955322439
 30
0.0
  0
SPLINE
  5
1AC
330
1F
100
AcDbEntity
  8
0
  6
Continuous
 62
     7
370
    15
100
AcDbSpline
210
0.0
220
0.0
230
1.0
 70
     8
 71
     3
 72
    13
 73
     9
 74
     0
 42
0.000000001
 43
0.00000001
 40
0.0
 40
0.0
 40
0.0
 40
0.0
 40
0.1254958282110341
 40
0.2507214360981831
 40
0.4999608136372889
 40
0.7492674853958317
 40
0.8745232882414693
 40
1.0
 40
1.0
 40
1.0
 40
1.0
 10
244.9455082156895
 20
162.860955322439
 30
0.0
 10
244.9460590680064
 20
162.8594406253606
 30
0.0
 10
244.9471595865331
 20
162.8564144926822
 30
0.0
 10
244.9576851940612
 20
162.8504725457345
 30
0.0
 10
244.9854835138628
 20
162.843372335322
 30
0.0
 10
245.0344299118906
 20
162.8372171310567
 30
0.0
 10
245.0842234413158
 20
162.8331178824628
 30
0.0
 10
245.1118751664483
 20
162.8313136293886
 30
0.0
 10
245.1257132103476
 20
162.8304107080292
 30
0.0
  0
SPLINE
  5
1AD
330
1F
100
AcDbEntity
  8
0
  6
Continuous
 62
     7
370
    15
100
AcDbSpline
210
0.0
220
0.0
230
1.0
 70
     8
 71
     3
 72
    12
 73
     8
 74
     0
 42
0.000000001
 43
0.00000001
 40
0.0
 40
0.0
 40
0.0
 40
0.0
 40
0.2508559072778438
 40
0.4999214036538336
 40
0.7489448210827816
 40
0.8744072848916737
 40
1.0
 40
1.0
 40
1.0
 40
1.0
 10
245.1257132103476
 20
162.8304107080292
 30
0.0
 10
245.1493742216076
 20
162.8291313972294
 30
0.0
 10
245.196527370558
 20
162.8265819063378
 30
0.0
 10
245.2767289394754
 20
162.8241502008451
 30
0.0
 10
245.3470830424797
 20
162.8230508139227
 30
0.0
 10
245.4048316906908
 20
162.8228824056761
 30
0.0
 10
245.4339336351588
 20
162.8229727713933
 30
0.0
 10
245.4484921566617
 20
162.8230179776935
 30
0.0
  0
SPLINE
  5
1AE
330
1F
100
AcDbEntity
  8
0
  6
Continuous
 62
     7
370
    15
100
AcDbSpline
210
0.0
220
0.0
230
1.0
 70
     8
 71
     3
 72
    16
 73
    12
 74
     0
 42
0.000000001
 43
0.00000001
 40
0.0
 40
0.0
 40
0.0
 40
0.0
 40
0.0632107875868288
 40
0.1260694332848516
 40
0.251321736919095
 40
0.3763496055700087
 40
0.5017326879512751
 40
0.6616272837565965
 40
0.8181717776757506
 40
0.9043622250863325
 40
0.9999999999999999
 40
0.9999999999999999
 40
0.9999999999999999
 40
0.9999999999999999
 10
245.4484921566617
 20
162.8230179776935
 30
0.0
 10
245.4648918419581
 20
162.8231573113602
 30
0.0
 10
245.4975998513076
 20
162.8234352024777
 30
0.0
 10
245.5623968987187
 20
162.8244951916597
 30
0.0
 10
245.6408576844903
 20
162.8268826652853
 30
0.0
 10
245.7282116667787
 20
162.831065395064
 30
0.0
 10
245.8139192776998
 20
162.8368686863745
 30
0.0
 10
245.8885608071756
 20
162.8447236050606
 30
0.0
 10
245.9276726326271
 20
162.8531956429406
 30
0.0
 10
245.9428077952215
 20
162.8605427879007
 30
0.0
 10
245.9450150052404
 20
162.8644895494045
 30
0.0
 10
245.9461759507322
 20
162.8665654619527
 30
0.0
  0
SPLINE
  5
1AF
330
1F
100
AcDbEntity
  8
0
  6
Continuous
 62
     7
370
    15
100
AcDbSpline
210
0.0
220
0.0
230
1.0
 70
     8
 71
     3
 72
    15
 73
    11
 74
     0
 42
0.000000001
 43
0.00000001
 40
0.0
 40
0.0
 40
0.0
 40
0.0
 40
0.0631184867615173
 40
0.1260608988840952
 40
0.2514117175700515
 40
0.2625763899444412
 40
0.5011530968135335
 40
0.7501373762063357
 40
0.8677850115665362
 40
1.0
 40
1.0
 40
1.0
 40
1.0
 10
245.9461759507322
 20
162.8665654619527
 30
0.0
 10
245.9459373090619
 20
162.8675288148024
 30
0.0
 10
245.9454606914333
 20
162.8694528331431
 30
0.0
 10
245.9422638076513
 20
162.8732591179284
 30
0.0
 10
245.9358833696458
 20
162.8762304083361
 30
0.0
 10
245.9189796140337
 20
162.8816750876218
 30
0.0
 10
245.8839205231331
 20
162.8886181936679
 30
0.0
 10
245.812226787767
 20
162.8954700253108
 30
0.0
 10
245.7395445927191
 20
162.8997267698088
 30
0.0
 10
245.7001560370204
 20
162.9014459506034
 30
0.0
 10
245.6793135542312
 20
162.9023556563666
 30
0.0
  0
ARC
  5
1B0
330
1F
100
AcDbEntity
  8
0
  6
Continuous
 62
     7
370
    15
100
AcDbCircle
 10
248.4472090805
 20
144.7022820917
 30
0.0
 40
18.40934337243305
100
AcDbArc
 50
98.6473698756
 51
98.8217732531
  0
ARC
  5
1B1
330
1F
100
AcDbEntity
  8
0
  6
Continuous
 62
     7
370
    15
100
AcDbCircle
 10
245.9292154806
 20
80.2389125044
 30
0.0
 40
82.8582375767429
100
AcDbArc
 50
90.0
 51
90.3621051349
  0
SPLINE
  5
1B2
330
1F
100
AcDbEntity
  8
0
  6
Continuous
 62
     7
370
    15
100
AcDbSpline
210
0.0
220
0.0
230
1.0
 70
     8
 71
     3
 72
    14
 73
    10
 74
     0
 42
0.000000001
 43
0.00000001
 40
0.0
 40
0.0
 40
0.0
 40
0.0
 40
0.2505918400750428
 40
0.3755402713136752
 40
0.500792784063431
 40
0.6257306687441119
 40
0.7506197376279499
 40
0.8750913414078023
 40
1.0
 40
1.0
 40
1.0
 40
1.0
 10
245.4055609667579
 20
163.0954953465537
 30
0.0
 10
245.3518319016218
 20
163.0950805153583
 30
0.0
 10
245.2713128085317
 20
163.0944588438001
 30
0.0
 10
245.1656058372015
 20
163.0927524764366
 30
0.0
 10
245.0909952441744
 20
163.0908267312037
 30
0.0
 10
245.0269874458679
 20
163.0882230880559
 30
0.0
 10
244.9793417421371
 20
163.0851196084385
 30
0.0
 10
244.9507193708804
 20
163.081738940243
 30
0.0
 10
244.9472472957641
 20
163.0794936642793
 30
0.0
 10
244.9455082156895
 20
163.0783690588028
 30
0.0
  0
SPLINE
  5
1B3
330
1F
100
AcDbEntity
  8
0
  6
Continuous
 62
     7
370
    15
100
AcDbSpline
210
0.0
220
0.0
230
1.0
 70
     8
 71
     3
 72
    13
 73
     9
 74
     0
 42
0.000000001
 43
0.00000001
 40
0.0
 40
0.0
 40
0.0
 40
0.0
 40
0.1258181512216607
 40
0.2506704865351145
 40
0.4998219693343915
 40
0.7494854761011738
 40
0.8669409371813883
 40
1.0
 40
1.0
 40
1.0
 40
1.0
 10
244.9455082156895
 20
163.0783690588028
 30
0.0
 10
244.9463607367404
 20
163.0775985708019
 30
0.0
 10
244.9480592346482
 20
163.0760635092851
 30
0.0
 10
244.9653555444076
 20
163.073175747272
 30
0.0
 10
245.0070571127245
 20
163.0699850986345
 30
0.0
 10
245.0701787519274
 20
163.0676256037188
 30
0.0
 10
245.1296638734478
 20
163.0661889265802
 30
0.0
 10
245.1618723672227
 20
163.0656281541324
 30
0.0
 10
245.1789796867098
 20
163.0653303037117
 30
0.0
  0
SPLINE
  5
1B4
330
1F
100
AcDbEntity
  8
0
  6
Continuous
 62
     7
370
    15
100
AcDbSpline
210
0.0
220
0.0
230
1.0
 70
     8
 71
     3
 72
    15
 73
    11
 74
     0
 42
0.000000001
 43
0.00000001
 40
0.0
 40
0.0
 40
0.0
 40
0.0
 40
0.1256469208020087
 40
0.2507163963687576
 40
0.3507329114534125
 40
0.5000237725409032
 40
0.6254390300118583
 40
0.7503082053935836
 40
0.8679681448341345
 40
1.0
 40
1.0
 40
1.0
 40
1.0
 10
245.1789796867098
 20
163.0653303037117
 30
0.0
 10
245.1626250369439
 20
163.0649023506887
 30
0.0
 10
245.1299908997362
 20
163.0640484114195
 30
0.0
 10
245.0864562182902
 20
163.0625938597037
 30
0.0
 10
245.0440007134048
 20
163.0607501889085
 30
0.0
 10
245.0082543139407
 20
163.0585578168751
 30
0.0
 10
244.9797177060065
 20
163.0559712092719
 30
0.0
 10
244.9603094639406
 20
163.0534719549461
 30
0.0
 10
244.9488582334083
 20
163.0508668950981
 30
0.0
 10
244.9466669310442
 20
163.0491350975647
 30
0.0
 10
244.9455082156895
 20
163.0482193588578
 30
0.0
  0
SPLINE
  5
1B5
330
1F
100
AcDbEntity
  8
0
  6
Continuous
 62
     7
370
    15
100
AcDbSpline
210
0.0
220
0.0
230
1.0
 70
     8
 71
     3
 72
    11
 73
     7
 74
     0
 42
0.000000001
 43
0.00000001
 40
0.0
 40
0.0
 40
0.0
 40
0.0
 40
0.2496702420672758
 40
0.4988582896017273
 40
0.7492807465337318
 40
1.0
 40
1.0
 40
1.0
 40
1.0
 10
244.9455082156895
 20
163.0482193588578
 30
0.0
 10
244.9463546198885
 20
163.0473733969987
 30
0.0
 10
244.9480457936045
 20
163.0456831071082
 30
0.0
 10
244.9566740951897
 20
163.0432017356724
 30
0.0
 10
244.9721624402014
 20
163.0408494911614
 30
0.0
 10
244.9870742526264
 20
163.0394005875817
 30
0.0
 10
244.9945345745303
 20
163.0386757067421
 30
0.0
  0
SPLINE
  5
1B6
330
1F
100
AcDbEntity
  8
0
  6
Continuous
 62
     7
370
    15
100
AcDbSpline
210
0.0
220
0.0
230
1.0
 70
     8
 71
     3
 72
    11
 73
     7
 74
     0
 42
0.000000001
 43
0.00000001
 40
0.0
 40
0.0
 40
0.0
 40
0.0
 40
0.266389206774224
 40
0.4988315969622256
 40
0.7493319875968341
 40
1.0
 40
1.0
 40
1.0
 40
1.0
 10
244.9945345745303
 20
163.0386757067421
 30
0.0
 10
245.0044840509972
 20
163.0380646886586
 30
0.0
 10
245.0231151107726
 20
163.0369205164527
 30
0.0
 10
245.0558528082069
 20
163.0354143629464
 30
0.0
 10
245.0915955347408
 20
163.0341627173837
 30
0.0
 10
245.1175178499435
 20
163.0334039370648
 30
0.0
 10
245.1304833425591
 20
163.0330244200137
 30
0.0
  0
ARC
  5
1B7
330
1F
100
AcDbEntity
  8
0
  6
Continuous
 62
     7
370
    15
100
AcDbCircle
 10
245.9292154806
 20
80.2389125044
 30
0.0
 40
82.79796459405851
100
AcDbArc
 50
90.5527272383
 51
90.6689991729
  0
LINE
  5
1B8
330
1F
100
AcDbEntity
  8
0
  6
Continuous
 62
     7
370
    15
100
AcDbLine
 10
244.9624686858
 20
163.024787701
 30
0.0
 11
244.9624686858
 21
163.0312330514
 31
0.0
  0
SPLINE
  5
1B9
330
1F
100
AcDbEntity
  8
0
  6
Continuous
 62
     7
370
    15
100
AcDbSpline
210
0.0
220
0.0
230
1.0
 70
     8
 71
     3
 72
     9
 73
     5
 74
     0
 42
0.000000001
 43
0.00000001
 40
0.0
 40
0.0
 40
0.0
 40
0.0
 40
0.5009848292813087
 40
0.9999999999999999
 40
0.9999999999999999
 40
0.9999999999999999
 40
0.9999999999999999
 10
244.962468685775
 20
163.0247877009836
 30
0.0
 10
245.1239063731151
 20
163.0264398468029
 30
0.0
 10
245.4461470436995
 20
163.0297376429093
 30
0.0
 10
245.7684042472177
 20
163.0302009768097
 30
0.0
 10
245.9292154806467
 20
163.0304321874551
 30
0.0
  0
LINE
  5
1BA
330
1F
100
AcDbEntity
  8
0
  6
Continuous
 62
     7
370
    15
100
AcDbLine
 10
245.9292154806
 20
163.0368770985
 30
0.0
 11
245.9292154806
 21
163.0304321875
 31
0.0
  0
ARC
  5
1BB
330
1F
100
AcDbEntity
  8
0
  6
Continuous
 62
     7
370
    15
100
AcDbCircle
 10
245.9292154806
 20
80.2389125044
 30
0.0
 40
82.79796459405853
100
AcDbArc
 50
90.0
 51
90.2814952105
  0
SPLINE
  5
1BC
330
1F
100
AcDbEntity
  8
0
  6
Continuous
 62
     7
370
    15
100
AcDbSpline
210
0.0
220
0.0
230
1.0
 70
     8
 71
     3
 72
    15
 73
    11
 74
     0
 42
0.000000001
 43
0.00000001
 40
0.0
 40
0.0
 40
0.0
 40
0.0
 40
0.1254870522018773
 40
0.2508958350317276
 40
0.376047162038679
 40
0.5013022314099742
 40
0.7497542396655842
 40
0.8746784681193869
 40
0.9345375717804436
 40
1.0
 40
1.0
 40
1.0
 40
1.0
 10
245.5224292059406
 20
163.0358778222804
 30
0.0
 10
245.4962799938301
 20
163.0357575729534
 30
0.0
 10
245.4439978795183
 20
163.0355171493017
 30
0.0
 10
245.365866713604
 20
163.035380575243
 30
0.0
 10
245.2886626500682
 20
163.0356023155371
 30
0.0
 10
245.191522951793
 20
163.0368958910549
 30
0.0
 10
245.1140972846453
 20
163.0402002669727
 30
0.0
 10
245.0771567419258
 20
163.0440839263615
 30
0.0
 10
245.0668424129518
 20
163.0465662237944
 30
0.0
 10
245.0651273692838
 20
163.0478483887906
 30
0.0
 10
245.0642315062878
 20
163.0485181351045
 30
0.0
  0
SPLINE
  5
1BD
330
1F
100
AcDbEntity
  8
0
  6
Continuous
 62
     7
370
    15
100
AcDbSpline
210
0.0
220
0.0
230
1.0
 70
     8
 71
     3
 72
    15
 73
    11
 74
     0
 42
0.000000001
 43
0.00000001
 40
0.0
 40
0.0
 40
0.0
 40
0.0
 40
0.1254198341211825
 40
0.250518547014261
 40
0.3756327395055921
 40
0.5008069554301812
 40
0.6251139687680038
 40
0.7495545869159749
 40
0.8749115634212761
 40
1.0
 40
1.0
 40
1.0
 40
1.0
 10
245.0642315062878
 20
163.0485181351045
 30
0.0
 10
245.0654813992062
 20
163.0495780235772
 30
0.0
 10
245.0679779848541
 20
163.0516950868156
 30
0.0
 10
245.0926158079795
 20
163.0548350313684
 30
0.0
 10
245.1332766189017
 20
163.0576011552338
 30
0.0
 10
245.1874932029525
 20
163.0597339764569
 30
0.0
 10
245.2490650596799
 20
163.0609739708557
 30
0.0
 10
245.3115113287971
 20
163.0618078873023
 30
0.0
 10
245.3745417988545
 20
163.0623280621672
 30
0.0
 10
245.4166135404259
 20
163.0625808673056
 30
0.0
 10
245.4376268555132
 20
163.0627071343398
 30
0.0
  0
ARC
  5
1BE
330
1F
100
AcDbEntity
  8
0
  6
Continuous
 62
     7
370
    15
100
AcDbCircle
 10
245.9292154806
 20
80.2389125044
 30
0.0
 40
82.82525349357029
100
AcDbArc
 50
90.0
 51
90.3400667992
  0
LINE
  5
1BF
330
1F
100
AcDbEntity
  8
0
  6
Continuous
 62
     7
370
    15
100
AcDbLine
 10
245.9292154806
 20
163.0696602057
 30
0.0
 11
245.9292154806
 21
163.064165998
 31
0.0
  0
ARC
  5
1C0
330
1F
100
AcDbEntity
  8
0
  6
Continuous
 62
     7
370
    15
100
AcDbCircle
 10
245.9292154806
 20
80.2389125044
 30
0.0
 40
82.83074770125042
100
AcDbArc
 50
90.0
 51
90.2601194633
  0
SPLINE
  5
1C1
330
1F
100
AcDbEntity
  8
0
  6
Continuous
 62
     7
370
    15
100
AcDbSpline
210
0.0
220
0.0
230
1.0
 70
     8
 71
     3
 72
    14
 73
    10
 74
     0
 42
0.000000001
 43
0.00000001
 40
0.0
 40
0.0
 40
0.0
 40
0.0
 40
0.1257483336227633
 40
0.2514681871181329
 40
0.3768418210278794
 40
0.5021358614988723
 40
0.7501221982111451
 40
0.8749865441533172
 40
1.0
 40
1.0
 40
1.0
 40
1.0
 10
245.5531700579704
 20
163.0688065921804
 30
0.0
 10
245.5256553972918
 20
163.0686859638552
 30
0.0
 10
245.470632307596
 20
163.0684447345255
 30
0.0
 10
245.3883506793276
 20
163.0681972540288
 30
0.0
 10
245.3065739847057
 20
163.068137402525
 30
0.0
 10
245.2023877950504
 20
163.068910335924
 30
0.0
 10
245.1179295930656
 20
163.071584164829
 30
0.0
 10
245.0709888079463
 20
163.075442932651
 30
0.0
 10
245.0664848360609
 20
163.0777025112812
 30
0.0
 10
245.0642315062878
 20
163.078832974777
 30
0.0
  0
SPLINE
  5
1C2
330
1F
100
AcDbEntity
  8
0
  6
Continuous
 62
     7
370
    15
100
AcDbSpline
210
0.0
220
0.0
230
1.0
 70
     8
 71
     3
 72
    14
 73
    10
 74
     0
 42
0.000000001
 43
0.00000001
 40
0.0
 40
0.0
 40
0.0
 40
0.0
 40
0.1253952980386848
 40
0.2506160606325256
 40
0.3759867519634922
 40
0.5012340642956409
 40
0.7494070559351748
 40
0.87478011502695
 40
1.0
 40
1.0
 40
1.0
 40
1.0
 10
245.0642315062878
 20
163.078832974777
 30
0.0
 10
245.0652569204502
 20
163.079666791147
 30
0.0
 10
245.0673063215195
 20
163.081333263313
 30
0.0
 10
245.0881992163476
 20
163.0838426843518
 30
0.0
 10
245.1230936610224
 20
163.086139844232
 30
0.0
 10
245.1872117051094
 20
163.0886482014793
 30
0.0
 10
245.2675727011778
 20
163.0898575042451
 30
0.0
 10
245.3457463696168
 20
163.0905646237115
 30
0.0
 10
245.3852774790045
 20
163.0908198241449
 30
0.0
 10
245.4050309520677
 20
163.0909473463664
 30
0.0
  0
ARC
  5
1C3
330
1F
100
AcDbEntity
  8
0
  6
Continuous
 62
     7
370
    15
100
AcDbCircle
 10
245.9292154806
 20
80.2389125044
 30
0.0
 40
82.85369301889807
100
AcDbArc
 50
90.0
 51
90.362491525
  0
LINE
  5
1C4
330
1F
100
AcDbEntity
  8
0
  6
Continuous
 62
     7
370
    15
100
AcDbLine
 10
245.9292154806
 20
163.0971500812
 30
0.0
 11
245.9292154806
 21
163.0926055233
 31
0.0
  0
ARC
  5
1C5
330
1F
100
AcDbEntity
  8
0
  6
Continuous
 62
     7
370
    15
100
AcDbCircle
 10
245.9292154806
 20
80.2389125044
 30
0.0
 40
82.89586554965176
100
AcDbArc
 50
90.0
 51
90.6682090415
  0
LINE
  5
1C6
330
1F
100
AcDbEntity
  8
0
  6
Continuous
 62
     7
370
    15
100
AcDbLine
 10
244.9624686858
 20
163.1263955862
 30
0.0
 11
244.9624686858
 21
163.1291406731
 31
0.0
  0
ARC
  5
1C7
330
1F
100
AcDbEntity
  8
0
  6
Continuous
 62
     7
370
    15
100
AcDbCircle
 10
245.9292154806
 20
80.2389125044
 30
0.0
 40
82.89312064935743
100
AcDbArc
 50
90.5445822755
 51
90.6682311693
  0
SPLINE
  5
1C8
330
1F
100
AcDbEntity
  8
0
  6
Continuous
 62
     7
370
    15
100
AcDbSpline
210
0.0
220
0.0
230
1.0
 70
     8
 71
     3
 72
    13
 73
     9
 74
     0
 42
0.000000001
 43
0.00000001
 40
0.0
 40
0.0
 40
0.0
 40
0.0
 40
0.1255167229825051
 40
0.2507702984616024
 40
0.4997180434736224
 40
0.7492056597880956
 40
0.8744897284691794
 40
1.0
 40
1.0
 40
1.0
 40
1.0
 10
245.1413486437077
 20
163.1282888854586
 30
0.0
 10
245.1263416504019
 20
163.1278625717495
 30
0.0
 10
245.0963591261542
 20
163.1270108381038
 30
0.0
 10
245.0424809224719
 20
163.1251407832312
 30
0.0
 10
244.9886531490686
 20
163.1225480780577
 30
0.0
 10
244.9583045590963
 20
163.1197867945131
 30
0.0
 10
244.9475497533378
 20
163.1175908846182
 30
0.0
 10
244.9461891373061
 20
163.1164960124447
 30
0.0
 10
244.9455082156895
 20
163.1159480826003
 30
0.0
  0
SPLINE
  5
1C9
330
1F
100
AcDbEntity
  8
0
  6
Continuous
 62
     7
370
    15
100
AcDbSpline
210
0.0
220
0.0
230
1.0
 70
     8
 71
     3
 72
    14
 73
    10
 74
     0
 42
0.000000001
 43
0.00000001
 40
0.0
 40
0.0
 40
0.0
 40
0.0
 40
0.0631905168459589
 40
0.1262835808315483
 40
0.2512606839400884
 40
0.5006717729429616
 40
0.7499831426274663
 40
0.8746990735749619
 40
1.0
 40
1.0
 40
1.0
 40
1.0
 10
244.9455082156895
 20
163.1159480826003
 30
0.0
 10
244.9460902652379
 20
163.1154786534961
 30
0.0
 10
244.9472534666938
 20
163.1145405192445
 30
0.0
 10
244.9552066581336
 20
163.1127009626281
 30
0.0
 10
244.9877444926502
 20
163.109712078015
 30
0.0
 10
245.0814580401641
 20
163.1062903892144
 30
0.0
 10
245.2178483032472
 20
163.1042412813776
 30
0.0
 10
245.3445846209325
 20
163.1038948389422
 30
0.0
 10
245.4102716481203
 20
163.1041666422706
 30
0.0
 10
245.44319200976
 20
163.1043028619208
 30
0.0
  0
SPLINE
  5
1CA
330
1F
100
AcDbEntity
  8
0
  6
Continuous
 62
     7
370
    15
100
AcDbSpline
210
0.0
220
0.0
230
1.0
 70
     8
 71
     3
 72
    16
 73
    12
 74
     0
 42
0.000000001
 43
0.00000001
 40
0.0
 40
0.0
 40
0.0
 40
0.0
 40
0.0630538235622141
 40
0.1258780518906377
 40
0.2507269193025619
 40
0.3931840893504116
 40
0.5007525710187073
 40
0.6652798017143744
 40
0.8293273391961744
 40
0.911445004659504
 40
1.0
 40
1.0
 40
1.0
 40
1.0
 10
245.44319200976
 20
163.1043028619208
 30
0.0
 10
245.4598177522882
 20
163.104416688579
 30
0.0
 10
245.4930086987283
 20
163.1046439274232
 30
0.0
 10
245.5586969781445
 20
163.1052622139631
 30
0.0
 10
245.6427852898772
 20
163.1064684075033
 30
0.0
 10
245.7297826367463
 20
163.1083849828567
 30
0.0
 10
245.8124206415813
 20
163.1109422440813
 30
0.0
 10
245.8846768203391
 20
163.1139585807715
 30
0.0
 10
245.9268777417845
 20
163.1171085576925
 30
0.0
 10
245.9426535904155
 20
163.1197085495762
 30
0.0
 10
245.9449726740214
 20
163.1210053120643
 30
0.0
 10
245.9461759507322
 20
163.1216781485663
 30
0.0
  0
SPLINE
  5
1CB
330
1F
100
AcDbEntity
  8
0
  6
Continuous
 62
     7
370
    15
100
AcDbSpline
210
0.0
220
0.0
230
1.0
 70
     8
 71
     3
 72
    14
 73
    10
 74
     0
 42
0.000000001
 43
0.00000001
 40
0.0
 40
0.0
 40
0.0
 40
0.0
 40
0.1253969777133085
 40
0.2505504897806548
 40
0.3098641374829684
 40
0.5000334861467449
 40
0.7491688894051426
 40
0.8744601107931624
 40
1.0
 40
1.0
 40
1.0
 40
1.0
 10
245.9461759507322
 20
163.1216781485663
 30
0.0
 10
245.9456736507919
 20
163.122213666571
 30
0.0
 10
245.9446700261562
 20
163.1232836628404
 30
0.0
 10
245.9376633579453
 20
163.1245561386058
 30
0.0
 10
245.9250300622668
 20
163.1260431738151
 30
0.0
 10
245.9001813282524
 20
163.1279192187378
 30
0.0
 10
245.8552832406069
 20
163.1297446972134
 30
0.0
 10
245.804146084693
 20
163.1310383701758
 30
0.0
 10
245.7760552083651
 20
163.1315889335818
 30
0.0
 10
245.7619958458978
 20
163.1318644881923
 30
0.0
  0
ARC
  5
1CC
330
1F
100
AcDbEntity
  8
0
  6
Continuous
 62
     7
370
    15
100
AcDbCircle
 10
245.9292154806
 20
80.2389125044
 30
0.0
 40
82.89312064935743
100
AcDbArc
 50
90.0
 51
90.1155823999
  0
LINE
  5
1CD
330
1F
100
AcDbEntity
  8
0
  6
Continuous
 62
     7
370
    15
100
AcDbLine
 10
245.9292154806
 20
163.1347780541
 30
0.0
 11
245.9292154806
 21
163.1320331538
 31
0.0
  0
ARC
  5
1CE
330
1F
100
AcDbEntity
  8
0
  6
Continuous
 62
     7
370
    15
100
AcDbCircle
 10
245.9292154806
 20
80.2389125044
 30
0.0
 40
82.91338427009602
100
AcDbArc
 50
90.0
 51
90.3411703829
  0
SPLINE
  5
1CF
330
1F
100
AcDbEntity
  8
0
  6
Continuous
 62
     7
370
    15
100
AcDbSpline
210
0.0
220
0.0
230
1.0
 70
     8
 71
     3
 72
    15
 73
    11
 74
     0
 42
0.000000001
 43
0.00000001
 40
0.0
 40
0.0
 40
0.0
 40
0.0
 40
0.1280955268488
 40
0.2507333116974629
 40
0.375743522068558
 40
0.5006226760609707
 40
0.6256221278744875
 40
0.7505591779055293
 40
0.8750578838055227
 40
0.9999999999999999
 40
0.9999999999999999
 40
0.9999999999999999
 40
0.9999999999999999
 10
245.4355067967525
 20
163.1508268645248
 30
0.0
 10
245.4058838586554
 20
163.1506381245413
 30
0.0
 10
245.3479001214085
 20
163.1502686861831
 30
0.0
 10
245.2613567126093
 20
163.1495377366606
 30
0.0
 10
245.1764718565749
 20
163.1486595929402
 30
0.0
 10
245.0968345882849
 20
163.1475505400635
 30
0.0
 10
245.0303504967299
 20
163.1462844010107
 30
0.0
 10
244.9808727320153
 20
163.1449547470383
 30
0.0
 10
244.9512635526782
 20
163.1436474658115
 30
0.0
 10
244.947428933514
 20
163.1428538483316
 30
0.0
 10
244.9455082156895
 20
163.1424563342177
 30
0.0
  0
SPLINE
  5
1D0
330
1F
100
AcDbEntity
  8
0
  6
Continuous
 62
     7
370
    15
100
AcDbSpline
210
0.0
220
0.0
230
1.0
 70
     8
 71
     3
 72
    14
 73
    10
 74
     0
 42
0.000000001
 43
0.00000001
 40
0.0
 40
0.0
 40
0.0
 40
0.0
 40
0.063109191126457
 40
0.1256830291291573
 40
0.2507912605613536
 40
0.4999009487893639
 40
0.7491589229220461
 40
0.8744799349198661
 40
1.0
 40
1.0
 40
1.0
 40
1.0
 10
244.9455082156895
 20
163.1424563342177
 30
0.0
 10
244.9457937147618
 20
163.1423388342721
 30
0.0
 10
244.9463622910274
 20
163.1421048311291
 30
0.0
 10
244.9489328504316
 20
163.1416408085138
 30
0.0
 10
244.959641708884
 20
163.1408862742738
 30
0.0
 10
244.9908487016959
 20
163.139957386283
 30
0.0
 10
245.043347178292
 20
163.1393255558354
 30
0.0
 10
245.0948493154956
 20
163.1390027648052
 30
0.0
 10
245.1228380476421
 20
163.1388760067573
 30
0.0
 10
245.1368435188412
 20
163.1388125774394
 30
0.0
  0
ARC
  5
1D1
330
1F
100
AcDbEntity
  8
0
  6
Continuous
 62
     7
370
    15
100
AcDbCircle
 10
245.9292154806
 20
80.2389125044
 30
0.0
 40
82.90368680246462
100
AcDbArc
 50
90.5476265557
 51
90.6681459988
  0
LINE
  5
1D2
330
1F
100
AcDbEntity
  8
0
  6
Continuous
 62
     7
370
    15
100
AcDbLine
 10
244.9624686858
 20
163.134776319
 30
0.0
 11
244.9624686858
 21
163.1369624578
 31
0.0
  0
SPLINE
  5
1D3
330
1F
100
AcDbEntity
  8
0
  6
Continuous
 62
     7
370
    15
100
AcDbSpline
210
0.0
220
0.0
230
1.0
 70
     8
 71
     3
 72
    10
 73
     6
 74
     0
 42
0.000000001
 43
0.00000001
 40
0.0
 40
0.0
 40
0.0
 40
0.0
 40
0.4999997343862266
 40
0.7499998671931151
 40
1.0
 40
1.0
 40
1.0
 40
1.0
 10
244.962468685775
 20
163.134776319026
 30
0.0
 10
245.123588923944
 20
163.1363898001884
 30
0.0
 10
245.3652693667892
 20
163.1388100227892
 30
0.0
 10
245.6875234117674
 20
163.1401988636611
 30
0.0
 10
245.8486514576869
 20
163.1403418323804
 30
0.0
 10
245.9292154806467
 20
163.14041331674
 30
0.0
  0
LINE
  5
1D4
330
1F
100
AcDbEntity
  8
0
  6
Continuous
 62
     7
370
    15
100
AcDbLine
 10
245.9292154806
 20
163.1425993069
 30
0.0
 11
245.9292154806
 21
163.1404133167
 31
0.0
  0
ARC
  5
1D5
330
1F
100
AcDbEntity
  8
0
  6
Continuous
 62
     7
370
    15
100
AcDbCircle
 10
245.9292154806
 20
80.2389125044
 30
0.0
 40
82.9036868024646
100
AcDbArc
 50
90.0
 51
90.2415754413
  0
SPLINE
  5
1D6
330
1F
100
AcDbEntity
  8
0
  6
Continuous
 62
     7
370
    15
100
AcDbSpline
210
0.0
220
0.0
230
1.0
 70
     8
 71
     3
 72
    10
 73
     6
 74
     0
 42
0.000000001
 43
0.00000001
 40
0.0
 40
0.0
 40
0.0
 40
0.0
 40
0.5001106365372397
 40
0.7501595261857175
 40
1.0
 40
1.0
 40
1.0
 40
1.0
 10
245.579670792479
 20
163.1418624154661
 30
0.0
 10
245.5362546526908
 20
163.1416692753654
 30
0.0
 10
245.4711310010966
 20
163.1413795676971
 30
0.0
 10
245.3843026902799
 20
163.1409313065792
 30
0.0
 10
245.3415806939128
 20
163.1407664994135
 30
0.0
 10
245.3202286016403
 20
163.1406841301867
 30
0.0
  0
SPLINE
  5
1D7
330
1F
100
AcDbEntity
  8
0
  6
Continuous
 62
     7
370
    15
100
AcDbSpline
210
0.0
220
0.0
230
1.0
 70
     8
 71
     3
 72
    13
 73
     9
 74
     0
 42
0.000000001
 43
0.00000001
 40
0.0
 40
0.0
 40
0.0
 40
0.0
 40
0.1324876577093156
 40
0.2509611965946248
 40
0.5009558392885266
 40
0.7501935542947893
 40
0.8691574693291054
 40
1.0
 40
1.0
 40
1.0
 40
1.0
 10
245.3202286016403
 20
163.1406841301867
 30
0.0
 10
245.301476002651
 20
163.1406505046552
 30
0.0
 10
245.2659543943519
 20
163.1405868103929
 30
0.0
 10
245.2004760092289
 20
163.1406641436476
 30
0.0
 10
245.1328609388155
 20
163.1411133198064
 30
0.0
 10
245.0860337292687
 20
163.1418982264256
 30
0.0
 10
245.0674073973516
 20
163.142759808139
 30
0.0
 10
245.065323172494
 20
163.1432477977314
 30
0.0
 10
245.0642315062878
 20
163.143503394792
 30
0.0
  0
SPLINE
  5
1D8
330
1F
100
AcDbEntity
  8
0
  6
Continuous
 62
     7
370
    15
100
AcDbSpline
210
0.0
220
0.0
230
1.0
 70
     8
 71
     3
 72
    12
 73
     8
 74
     0
 42
0.000000001
 43
0.00000001
 40
0.0
 40
0.0
 40
0.0
 40
0.0
 40
0.125620367123888
 40
0.2509675275273109
 40
0.500980362217717
 40
0.7502890287479433
 40
1.0
 40
1.0
 40
1.0
 40
1.0
 10
245.0642315062878
 20
163.143503394792
 30
0.0
 10
245.0648623002201
 20
163.1437012397938
 30
0.0
 10
245.0661225161963
 20
163.1440964995122
 30
0.0
 10
245.0755199247151
 20
163.1449119585395
 30
0.0
 10
245.1054261616592
 20
163.1460155023652
 30
0.0
 10
245.1722178560653
 20
163.147305104248
 30
0.0
 10
245.2270624003505
 20
163.1479440278425
 30
0.0
 10
245.2545067800591
 20
163.1482637471867
 30
0.0
  0
SPLINE
  5
1D9
330
1F
100
AcDbEntity
  8
0
  6
Continuous
 62
     7
370
    15
100
AcDbSpline
210
0.0
220
0.0
230
1.0
 70
     8
 71
     3
 72
    10
 73
     6
 74
     0
 42
0.000000001
 43
0.00000001
 40
0.0
 40
0.0
 40
0.0
 40
0.0
 40
0.235045556071574
 40
0.4997135220485761
 40
1.0
 40
1.0
 40
1.0
 40
1.0
 10
245.2545067800591
 20
163.1482637471867
 30
0.0
 10
245.2715577464394
 20
163.1484303317204
 30
0.0
 10
245.3078085848158
 20
163.1487844951663
 30
0.0
 10
245.381386668747
 20
163.1493558576265
 30
0.0
 10
245.4376597923064
 20
163.1496898186653
 30
0.0
 10
245.4744628764801
 20
163.1499082319226
 30
0.0
  0
ARC
  5
1DA
330
1F
100
AcDbEntity
  8
0
  6
Continuous
 62
     7
370
    15
100
AcDbCircle
 10
245.9292154806
 20
80.2389125044
 30
0.0
 40
82.91224283816986
100
AcDbArc
 50
90.0
 51
90.3142543813
  0
LINE
  5
1DB
330
1F
100
AcDbEntity
  8
0
  6
Continuous
 62
     7
370
    15
100
AcDbLine
 10
245.9292154806
 20
163.1522967745
 30
0.0
 11
245.9292154806
 21
163.1511553426
 31
0.0
  0
ARC
  5
1DC
330
1F
100
AcDbEntity
  8
0
  6
Continuous
 62
     7
370
    15
100
AcDbCircle
 10
245.9292154806
 20
80.2389125044
 30
0.0
 40
82.77614715280197
100
AcDbArc
 50
90.0
 51
90.9392144087
  0
LINE
  5
1DD
330
1F
100
AcDbEntity
  8
0
  6
Continuous
 62
     7
370
    15
100
AcDbLine
 10
244.5723778738
 20
162.9969314147
 30
0.0
 11
244.5723778738
 21
163.0039385068
 31
0.0
  0
ARC
  5
1DE
330
1F
100
AcDbEntity
  8
0
  6
Continuous
 62
     7
370
    15
100
AcDbCircle
 10
245.9292154806
 20
80.2389125044
 30
0.0
 40
82.7691410021802
100
AcDbArc
 50
90.5397108969
 51
90.9392939174
  0
SPLINE
  5
1DF
330
1F
100
AcDbEntity
  8
0
  6
Continuous
 62
     7
370
    15
100
AcDbSpline
210
0.0
220
0.0
230
1.0
 70
     8
 71
     3
 72
    13
 73
     9
 74
     0
 42
0.000000001
 43
0.00000001
 40
0.0
 40
0.0
 40
0.0
 40
0.0
 40
0.1258238373450347
 40
0.2514182010241621
 40
0.5008667059271958
 40
0.7495557850899538
 40
0.8675254540931152
 40
1.0
 40
1.0
 40
1.0
 40
1.0
 10
245.1495638714053
 20
163.0043814247874
 30
0.0
 10
245.1344403085944
 20
163.0035230767422
 30
0.0
 10
245.1042207648638
 20
163.0018079460807
 30
0.0
 10
245.0487822093129
 20
162.9980318967506
 30
0.0
 10
244.9930389318136
 20
162.9926034567883
 30
0.0
 10
244.9603651449451
 20
162.9866323785125
 30
0.0
 10
244.9484554181606
 20
162.9817068903099
 30
0.0
 10
244.9465278296364
 20
162.9792260822854
 30
0.0
 10
244.9455082156895
 20
162.9779138382927
 30
0.0
  0
SPLINE
  5
1E0
330
1F
100
AcDbEntity
  8
0
  6
Continuous
 62
     7
370
    15
100
AcDbSpline
210
0.0
220
0.0
230
1.0
 70
     8
 71
     3
 72
    14
 73
    10
 74
     0
 42
0.000000001
 43
0.00000001
 40
0.0
 40
0.0
 40
0.0
 40
0.0
 40
0.0631836270251562
 40
0.1262873318460878
 40
0.2512519500204887
 40
0.5006604288167674
 40
0.749979847365762
 40
0.8746967130556229
 40
1.0
 40
1.0
 40
1.0
 40
1.0
 10
244.9455082156895
 20
162.9779138382927
 30
0.0
 10
244.9460927474268
 20
162.976850059187
 30
0.0
 10
244.9472610715158
 20
162.9747238465706
 30
0.0
 10
244.9551831082418
 20
162.9705323451301
 30
0.0
 10
244.9876725013753
 20
162.9635587574173
 30
0.0
 10
245.0812800737145
 20
162.9551400372321
 30
0.0
 10
245.2176836640812
 20
162.94956037425
 30
0.0
 10
245.3445031018703
 20
162.9478323938795
 30
0.0
 10
245.4102443085522
 20
162.947964052474
 30
0.0
 10
245.44319200976
 20
162.9480300361737
 30
0.0
  0
SPLINE
  5
1E1
330
1F
100
AcDbEntity
  8
0
  6
Continuous
 62
     7
370
    15
100
AcDbSpline
210
0.0
220
0.0
230
1.0
 70
     8
 71
     3
 72
    15
 73
    11
 74
     0
 42
0.000000001
 43
0.00000001
 40
0.0
 40
0.0
 40
0.0
 40
0.0
 40
0.0631357489204404
 40
0.1260236813740739
 40
0.2510380907837258
 40
0.5001449010115896
 40
0.6648095957747845
 40
0.8289963088750053
 40
0.9108125989063636
 40
0.9999999999999999
 40
0.9999999999999999
 40
0.9999999999999999
 40
0.9999999999999999
 10
245.44319200976
 20
162.9480300361737
 30
0.0
 10
245.4598344782192
 20
162.9481637060171
 30
0.0
 10
245.4930540911681
 20
162.9484305210314
 30
0.0
 10
245.5587897055468
 20
162.9493592818317
 30
0.0
 10
245.670105486151
 20
162.9521297810298
 30
0.0
 10
245.7896961723451
 20
162.9582638003332
 30
0.0
 10
245.8846265202638
 20
162.9665826602098
 30
0.0
 10
245.9268582417815
 20
162.9733654958452
 30
0.0
 10
245.9426280460282
 20
162.9790898535896
 30
0.0
 10
245.9449598122504
 20
162.9820016997371
 30
0.0
 10
245.9461759507322
 20
162.9835203803491
 30
0.0
  0
SPLINE
  5
1E2
330
1F
100
AcDbEntity
  8
0
  6
Continuous
 62
     7
370
    15
100
AcDbSpline
210
0.0
220
0.0
230
1.0
 70
     8
 71
     3
 72
    14
 73
    10
 74
     0
 42
0.000000001
 43
0.00000001
 40
0.0
 40
0.0
 40
0.0
 40
0.0
 40
0.1253954885751083
 40
0.2505491320636844
 40
0.309984506774131
 40
0.5000333855245134
 40
0.7491696009967456
 40
0.8744590381853464
 40
1.0
 40
1.0
 40
1.0
 40
1.0
 10
245.9461759507322
 20
162.9835203803491
 30
0.0
 10
245.9456738872729
 20
162.9847323208988
 30
0.0
 10
245.9446707286634
 20
162.9871538645785
 30
0.0
 10
245.937667240307
 20
162.9900844512152
 30
0.0
 10
245.9250420093937
 20
162.9935406938302
 30
0.0
 10
245.9002032851886
 20
162.9979686895948
 30
0.0
 10
245.8553240902871
 20
163.0024226763381
 30
0.0
 10
245.8041714199398
 20
163.0057020569664
 30
0.0
 10
245.7760637657279
 20
163.007156591716
 30
0.0
 10
245.7619958458978
 20
163.0078845883709
 30
0.0
  0
ARC
  5
1E3
330
1F
100
AcDbEntity
  8
0
  6
Continuous
 62
     7
370
    15
100
AcDbCircle
 10
245.9292154806
 20
80.2389125044
 30
0.0
 40
82.7691410021802
100
AcDbArc
 50
90.0
 51
90.1157555307
  0
LINE
  5
1E4
330
1F
100
AcDbEntity
  8
0
  6
Continuous
 62
     7
370
    15
100
AcDbLine
 10
245.9292154806
 20
163.0150596572
 30
0.0
 11
245.9292154806
 21
163.0080535066
 31
0.0
  0
ARC
  5
1E5
330
1F
100
AcDbEntity
  8
0
  6
Continuous
 62
     7
370
    15
100
AcDbCircle
 10
245.9292154806
 20
80.2389125044
 30
0.0
 40
82.69342909887934
100
AcDbArc
 50
90.0
 51
90.9401539871
  0
LINE
  5
1E6
330
1F
100
AcDbEntity
  8
0
  6
Continuous
 62
     7
370
    15
100
AcDbLine
 10
244.5723778738
 20
162.912392892
 30
0.0
 11
244.5723778738
 21
162.9212093269
 31
0.0
  0
ARC
  5
1E7
330
1F
100
AcDbEntity
  8
0
  6
Continuous
 62
     7
370
    15
100
AcDbCircle
 10
245.9292154806
 20
80.2389125044
 30
0.0
 40
82.68461385101031
100
AcDbArc
 50
90.0
 51
90.9402542286
  0
LINE
  5
1E8
330
1F
100
AcDbEntity
  8
0
  6
Continuous
 62
     7
370
    15
100
AcDbLine
 10
245.9292154806
 20
162.9323416033
 30
0.0
 11
245.9292154806
 21
162.9235263554
 31
0.0
  0
SPLINE
  5
1E9
330
1F
100
AcDbEntity
  8
0
  6
Continuous
 62
     7
370
    15
100
AcDbSpline
210
0.0
220
0.0
230
1.0
 70
     8
 71
     3
 72
    11
 73
     7
 74
     0
 42
0.000000001
 43
0.00000001
 40
0.0
 40
0.0
 40
0.0
 40
0.0
 40
0.0316923725705024
 40
0.3754568415346779
 40
0.7190159592042127
 40
1.0
 40
1.0
 40
1.0
 40
1.0
 10
245.0642315062878
 20
163.6505823853603
 30
0.0
 10
245.0617692901855
 20
163.6505660821277
 30
0.0
 10
245.0325996255013
 20
163.6503729391185
 30
0.0
 10
244.9920979771436
 20
163.6500817412768
 30
0.0
 10
244.9544850097068
 20
163.6498222653237
 30
0.0
 10
244.9487858382573
 20
163.6497739222039
 30
0.0
 10
244.946221762098
 20
163.6497521724737
 30
0.0
  0
LINE
  5
1EA
330
1F
100
AcDbEntity
  8
0
  6
Continuous
 62
     7
370
    15
100
AcDbLine
 10
245.0642315063
 20
163.1510673043
 30
0.0
 11
245.0642315063
 21
163.6510673043
 31
0.0
  0
LINE
  5
1EB
330
1F
100
AcDbEntity
  8
0
  6
Continuous
 62
     7
370
    15
100
AcDbLine
 10
245.447962142
 20
163.1306361336
 30
0.0
 11
245.447962142
 21
163.1333810801
 31
0.0
  0
SPLINE
  5
1EC
330
1F
100
AcDbEntity
  8
0
  6
Continuous
 62
     7
370
    15
100
AcDbSpline
210
0.0
220
0.0
230
1.0
 70
     8
 71
     3
 72
    14
 73
    10
 74
     0
 42
0.000000001
 43
0.00000001
 40
0.0
 40
0.0
 40
0.0
 40
0.0
 40
0.1258533518782684
 40
0.2509243902593065
 40
0.4999925275527603
 40
0.6249066659073979
 40
0.749910409661278
 40
0.8682631539971333
 40
1.0
 40
1.0
 40
1.0
 40
1.0
 10
245.0642315062878
 20
163.1173176158821
 30
0.0
 10
245.0653980203092
 20
163.1180529264833
 30
0.0
 10
245.067723797217
 20
163.119518976942
 30
0.0
 10
245.0954543429805
 20
163.1224733713746
 30
0.0
 10
245.1526504480452
 20
163.1252908592291
 30
0.0
 10
245.2304873380697
 20
163.1276034775515
 30
0.0
 10
245.2965123429975
 20
163.129016206162
 30
0.0
 10
245.3704397867584
 20
163.1300533729982
 30
0.0
 10
245.4212155639495
 20
163.1304350709193
 30
0.0
 10
245.4479621419715
 20
163.1306361335873
 30
0.0
  0
SPLINE
  5
1ED
330
1F
100
AcDbEntity
  8
0
  6
Continuous
 62
     7
370
    15
100
AcDbSpline
210
0.0
220
0.0
230
1.0
 70
     8
 71
     3
 72
    17
 73
    13
 74
     0
 42
0.000000001
 43
0.00000001
 40
0.0
 40
0.0
 40
0.0
 40
0.0
 40
0.0632049317793414
 40
0.1256997277206511
 40
0.2506956632218937
 40
0.3755795797055819
 40
0.5007217898278656
 40
0.6254499743890951
 40
0.750351309404786
 40
0.8333082711810107
 40
0.912347209960832
 40
1.0
 40
1.0
 40
1.0
 40
1.0
 10
245.4445170464854
 20
163.108344271984
 30
0.0
 10
245.4317642344654
 20
163.1082815296586
 30
0.0
 10
245.4064018940045
 20
163.1081567499459
 30
0.0
 10
245.3562640448816
 20
163.1080768398898
 30
0.0
 10
245.2959143676405
 20
163.10829897206
 30
0.0
 10
245.2296324694874
 20
163.108982707496
 30
0.0
 10
245.1708620444009
 20
163.1100225414632
 30
0.0
 10
245.1240767621865
 20
163.111473432618
 30
0.0
 10
245.0931012447149
 20
163.1130109746556
 30
0.0
 10
245.0759174621675
 20
163.1145003127279
 30
0.0
 10
245.0671909652732
 20
163.115876676897
 30
0.0
 10
245.0652514018147
 20
163.1168210361921
 30
0.0
 10
245.0642315062878
 20
163.1173176158821
 30
0.0
  0
SPLINE
  5
1EE
330
1F
100
AcDbEntity
  8
0
  6
Continuous
 62
     7
370
    15
100
AcDbSpline
210
0.0
220
0.0
230
1.0
 70
     8
 71
     3
 72
    16
 73
    12
 74
     0
 42
0.000000001
 43
0.00000001
 40
0.0
 40
0.0
 40
0.0
 40
0.0
 40
0.0722874114739697
 40
0.143923126006535
 40
0.2868944162760113
 40
0.3940029337856092
 40
0.5009468780654357
 40
0.6257612825812054
 40
0.7507419427461736
 40
0.866690747540152
 40
1.0
 40
1.0
 40
1.0
 40
1.0
 10
245.4479621419715
 20
163.1306361335873
 30
0.0
 10
245.4625856536964
 20
163.1307071683704
 30
0.0
 10
245.4917008409429
 20
163.1308485975327
 30
0.0
 10
245.5492236669674
 20
163.1309302088067
 30
0.0
 10
245.611451405336
 20
163.1306797683345
 30
0.0
 10
245.673505173938
 20
163.1299711135928
 30
0.0
 10
245.7249892193955
 20
163.1289707115269
 30
0.0
 10
245.768133936495
 20
163.127573140221
 30
0.0
 10
245.8013045734126
 20
163.12587788398
 30
0.0
 10
245.822001813701
 20
163.1239182106665
 30
0.0
 10
245.8255532603557
 20
163.1224980976389
 30
0.0
 10
245.8274526601339
 20
163.1217385867601
 30
0.0
  0
SPLINE
  5
1EF
330
1F
100
AcDbEntity
  8
0
  6
Continuous
 62
     7
370
    15
100
AcDbSpline
210
0.0
220
0.0
230
1.0
 70
     8
 71
     3
 72
    17
 73
    13
 74
     0
 42
0.000000001
 43
0.00000001
 40
0.0
 40
0.0
 40
0.0
 40
0.0
 40
0.0630724009425742
 40
0.1257767540639561
 40
0.2508798609149936
 40
0.375559102732399
 40
0.5005308175083034
 40
0.625324566250202
 40
0.7506990573623009
 40
0.8217736375603716
 40
0.8752101993096222
 40
1.0
 40
1.0
 40
1.0
 40
1.0
 10
245.8274526601339
 20
163.1217385867601
 30
0.0
 10
245.8270111932663
 20
163.1213732760142
 30
0.0
 10
245.8261308356328
 20
163.1206447862285
 30
0.0
 10
245.8193200278466
 20
163.1191664956563
 30
0.0
 10
245.8009039004687
 20
163.1173237061281
 30
0.0
 10
245.7653851898047
 20
163.1151955935979
 30
0.0
 10
245.7180048606453
 20
163.1132131119657
 30
0.0
 10
245.658848640781
 20
163.1114983088333
 30
0.0
 10
245.6018511176286
 20
163.1102596676705
 30
0.0
 10
245.5545734642627
 20
163.1094684207969
 30
0.0
 10
245.5056085134488
 20
163.1088410516929
 30
0.0
 10
245.4696760740023
 20
163.1085488585652
 30
0.0
 10
245.4445170464854
 20
163.108344271984
 30
0.0
  0
LINE
  5
1F0
330
1F
100
AcDbEntity
  8
0
  6
Continuous
 62
     7
370
    15
100
AcDbLine
 10
245.7619958459
 20
163.1318644882
 30
0.0
 11
245.7619958459
 21
163.1346093941
 31
0.0
  0
SPLINE
  5
1F1
330
1F
100
AcDbEntity
  8
0
  6
Continuous
 62
     7
370
    15
100
AcDbSpline
210
0.0
220
0.0
230
1.0
 70
     8
 71
     3
 72
    16
 73
    12
 74
     0
 42
0.000000001
 43
0.00000001
 40
0.0
 40
0.0
 40
0.0
 40
0.0
 40
0.06322968886748
 40
0.1257238905644082
 40
0.2507457684867785
 40
0.3756593346196991
 40
0.5008212100222917
 40
0.6255721320895056
 40
0.7504881924828183
 40
0.8673457970711318
 40
1.0
 40
1.0
 40
1.0
 40
1.0
 10
245.4445170464854
 20
162.9563392429612
 30
0.0
 10
245.4317515093284
 20
162.9562910067101
 30
0.0
 10
245.4063689236275
 20
162.9561950952915
 30
0.0
 10
245.3561897197424
 20
162.9563839671298
 30
0.0
 10
245.2958053118073
 20
162.9573214404895
 30
0.0
 10
245.2294988460875
 20
162.959344391433
 30
0.0
 10
245.1707428840408
 20
162.962124984624
 30
0.0
 10
245.123986929884
 20
162.9657345093225
 30
0.0
 10
245.0899202183274
 20
162.9697986023602
 30
0.0
 10
245.0694814258562
 20
162.9744148524358
 30
0.0
 10
245.0660538135489
 20
162.977632184202
 30
0.0
 10
245.0642315062878
 20
162.9793426947595
 30
0.0
  0
SPLINE
  5
1F2
330
1F
100
AcDbEntity
  8
0
  6
Continuous
 62
     7
370
    15
100
AcDbSpline
210
0.0
220
0.0
230
1.0
 70
     8
 71
     3
 72
    14
 73
    10
 74
     0
 42
0.000000001
 43
0.00000001
 40
0.0
 40
0.0
 40
0.0
 40
0.0
 40
0.1258548444239898
 40
0.250922536971924
 40
0.4999941593260717
 40
0.6249128607934188
 40
0.7499211329977371
 40
0.8672156485170611
 40
1.0
 40
1.0
 40
1.0
 40
1.0
 10
245.0642315062878
 20
162.9793426947595
 30
0.0
 10
245.0653971605049
 20
162.9809954794298
 30
0.0
 10
245.0677211784221
 20
162.9842907115239
 30
0.0
 10
245.0953976129181
 20
162.9907757858439
 30
0.0
 10
245.1525359110015
 20
162.9967263538859
 30
0.0
 10
245.2303531305564
 20
163.0013936515579
 30
0.0
 10
245.2962010128775
 20
163.0041054749447
 30
0.0
 10
245.3701623274704
 20
163.0058965071142
 30
0.0
 10
245.4209796651619
 20
163.0063915440625
 30
0.0
 10
245.4479621419715
 20
163.0066543937824
 30
0.0
  0
SPLINE
  5
1F3
330
1F
100
AcDbEntity
  8
0
  6
Continuous
 62
     7
370
    15
100
AcDbSpline
210
0.0
220
0.0
230
1.0
 70
     8
 71
     3
 72
    17
 73
    13
 74
     0
 42
0.000000001
 43
0.00000001
 40
0.0
 40
0.0
 40
0.0
 40
0.0
 40
0.0630652075991579
 40
0.1257743987310981
 40
0.2508747683290981
 40
0.3755550138644104
 40
0.500529167682979
 40
0.6253184411129732
 40
0.7506948265916298
 40
0.8129030977638558
 40
0.8752122713965096
 40
1.0
 40
1.0
 40
1.0
 40
1.0
 10
245.8274526601339
 20
162.9837330139205
 30
0.0
 10
245.8270103943515
 20
162.9829116870253
 30
0.0
 10
245.8261283594708
 20
162.9812736697994
 30
0.0
 10
245.8193327104757
 20
162.9779939368178
 30
0.0
 10
245.8009411365203
 20
162.9739711599582
 30
0.0
 10
245.7654659904365
 20
162.9694318278083
 30
0.0
 10
245.7181171085667
 20
162.9653115165106
 30
0.0
 10
245.6589847006237
 20
162.9618697314762
 30
0.0
 10
245.6035191895589
 20
162.9595641837498
 30
0.0
 10
245.5564003843915
 20
162.9581073260589
 30
0.0
 10
245.5074479515108
 20
162.9570245436773
 30
0.0
 10
245.4696962439211
 20
162.9566134376836
 30
0.0
 10
245.4445170464854
 20
162.9563392429612
 30
0.0
  0
LINE
  5
1F4
330
1F
100
AcDbEntity
  8
0
  6
Continuous
 62
     7
370
    15
100
AcDbLine
 10
245.447962142
 20
163.0066543938
 30
0.0
 11
245.447962142
 21
163.0136606628
 31
0.0
  0
LINE
  5
1F5
330
1F
100
AcDbEntity
  8
0
  6
Continuous
 62
     7
370
    15
100
AcDbLine
 10
245.0642315063
 20
162.9793426948
 30
0.0
 11
245.0642315063
 21
163.0105401324
 31
0.0
  0
LINE
  5
1F6
330
1F
100
AcDbEntity
  8
0
  6
Continuous
 62
     7
370
    15
100
AcDbLine
 10
245.1495638714
 20
163.0043814248
 30
0.0
 11
245.1495638714
 21
163.0113878862
 31
0.0
  0
SPLINE
  5
1F7
330
1F
100
AcDbEntity
  8
0
  6
Continuous
 62
     7
370
    15
100
AcDbSpline
210
0.0
220
0.0
230
1.0
 70
     8
 71
     3
 72
    13
 73
     9
 74
     0
 42
0.000000001
 43
0.00000001
 40
0.0
 40
0.0
 40
0.0
 40
0.0
 40
0.1254649056689243
 40
0.2505433883837185
 40
0.5003272439658765
 40
0.7493827321680819
 40
0.8745147310822878
 40
1.0
 40
1.0
 40
1.0
 40
1.0
 10
245.0642315062878
 20
162.8627933711663
 30
0.0
 10
245.0654102910244
 20
162.8645722428776
 30
0.0
 10
245.0677642299248
 20
162.8681245075022
 30
0.0
 10
245.0871079002209
 20
162.8751341734865
 30
0.0
 10
245.1345539499201
 20
162.8834340188685
 30
0.0
 10
245.2139133045059
 20
162.8901010330321
 30
0.0
 10
245.291439388518
 20
162.8935161342311
 30
0.0
 10
245.3321669914621
 20
162.8947605479192
 30
0.0
 10
245.3525594977408
 20
162.8953836318258
 30
0.0
  0
SPLINE
  5
1F8
330
1F
100
AcDbEntity
  8
0
  6
Continuous
 62
     7
370
    15
100
AcDbSpline
210
0.0
220
0.0
230
1.0
 70
     8
 71
     3
 72
    11
 73
     7
 74
     0
 42
0.000000001
 43
0.00000001
 40
0.0
 40
0.0
 40
0.0
 40
0.0
 40
0.2505588865522712
 40
0.4997860901646584
 40
0.7490533074983617
 40
1.0
 40
1.0
 40
1.0
 40
1.0
 10
245.154864018307
 20
162.8424873544374
 30
0.0
 10
245.1407708368145
 20
162.8438933966228
 30
0.0
 10
245.1126593769774
 20
162.8466980080899
 30
0.0
 10
245.0846720722656
 20
162.8517333897215
 30
0.0
 10
245.0668650693588
 20
162.8571274212618
 30
0.0
 10
245.065111323387
 20
162.8609004984784
 30
0.0
 10
245.0642315062878
 20
162.8627933711663
 30
0.0
  0
LINE
  5
1F9
330
1F
100
AcDbEntity
  8
0
  6
Continuous
 62
     7
370
    15
100
AcDbLine
 10
245.3525594977
 20
162.8340584089
 30
0.0
 11
245.3525594977
 21
162.8953836318
 31
0.0
  0
SPLINE
  5
1FA
330
1F
100
AcDbEntity
  8
0
  6
Continuous
 62
     7
370
    15
100
AcDbSpline
210
0.0
220
0.0
230
1.0
 70
     8
 71
     3
 72
    11
 73
     7
 74
     0
 42
0.000000001
 43
0.00000001
 40
0.0
 40
0.0
 40
0.0
 40
0.0
 40
0.2696156589303868
 40
0.499332351123063
 40
0.749674115413648
 40
1.0
 40
1.0
 40
1.0
 40
1.0
 10
245.3525594977408
 20
162.8340584089329
 30
0.0
 10
245.3327663204536
 20
162.8344916544223
 30
0.0
 10
245.2961090513982
 20
162.8352940317387
 30
0.0
 10
245.2436695160666
 20
162.8370372513918
 30
0.0
 10
245.19549730054
 20
162.8392566737612
 30
0.0
 10
245.1684081593221
 20
162.8414104836495
 30
0.0
 10
245.154864018307
 20
162.8424873544374
 30
0.0
  0
LINE
  5
1FB
330
1F
100
AcDbEntity
  8
0
  6
Continuous
 62
     7
370
    15
100
AcDbLine
 10
245.8274526601
 20
162.8652608689
 30
0.0
 11
245.8274526601
 21
162.8931014985
 31
0.0
  0
LINE
  5
1FC
330
1F
100
AcDbEntity
  8
0
  6
Continuous
 62
     7
370
    15
100
AcDbLine
 10
245.4484921567
 20
162.8230179777
 30
0.0
 11
245.4484921567
 21
162.9050318902
 31
0.0
  0
LINE
  5
1FD
330
1F
100
AcDbEntity
  8
0
  6
Continuous
 62
     8
370
    15
100
AcDbLine
 10
245.4744628765
 20
163.1499082319
 30
0.0
 11
245.4744628765
 21
163.151049681
 31
0.0
  0
HATCH
  5
1FE
330
1F
100
AcDbEntity
  8
0
  6
Continuous
 62
     7
370
     0
100
AcDbHatch
 10
0.0
 20
0.0
 30
0.0
210
0.0
220
0.0
230
1.0
  2
DIN 201 Stahl und Stahlguss
 70
     0
 71
     0
 91
        1
 92
        0
 93
       10
 72
     1
 10
280.9292154806469
 20
155.6555791710951
 11
280.9292154806461
 21
158.1555791710951
 72
     2
 10
245.9292154806467
 20
80.2389125044279
 40
85.41666666666664
 50
65.81048584597634
 51
114.1895141540237
 73
     1
 72
     1
 10
210.9292154806474
 20
158.1555791710951
 11
210.9292154806466
 21
155.6555791710951
 72
     1
 10
210.9292154806466
 20
155.6555791710951
 11
211.4690936004211
 21
155.6555791710951
 72
     2
 10
245.9292154806467
 20
80.2389125044279
 40
82.91666666666667
 50
245.4429270021246
 51
269.3207288082972
 73
     0
 72
     1
 10
244.946224382889
 20
163.1497522034239
 11
244.946224382889
 21
163.6497522034239
 72
     2
 10
245.9292154806467
 20
80.7389125044279
 40
82.91666666666667
 50
269.3207311235617
 51
269.4022924303359
 73
     0
 72
     1
 10
245.0642473831841
 20
163.6510674715587
 11
245.0642473831841
 21
163.1510674715586
 72
     2
 10
245.9292154806467
 20
80.2389125044279
 40
82.91666666666667
 50
269.4022924426536
 51
294.5570729978771
 73
     0
 72
     1
 10
280.3893373608724
 20
155.6555791710951
 11
280.9292154806469
 21
155.6555791710951
 97
        0
 75
     0
 76
     2
 52
0.0
 41
1.0
 77
     0
 78
     4
 53
45.00000209717174
 43
0.0
 44
0.0
 45
-13.47038467465416
 46
13.47038368855329
 79
     0
 53
45.00000209717174
 43
4.490128
 44
0.0
 45
-13.47038467465416
 46
13.47038368855329
 79
     0
 53
45.00000209717174
 43
8.980256
 44
0.0
 45
-13.47038467465416
 46
13.47038368855329
 79
     0
 53
45.00000209717174
 43
13.47038
 44
0.0
 45
-13.47038467465416
 46
13.47038368855329
 79
     0
 98
        1
 10
0.0
 20
0.0
  0
MTEXT
  5
1FF
330
1F
100
AcDbEntity
  8
0
  6
Continuous
 62
     7
370
     0
100
AcDbMText
 10
245.6399796876
 20
152.8915942298
 30
0.0
 40
3.5
 41
0.0
 71
     2
 72
     1
  1
A-A
  7
SLDTEXTSTYLE0
 73
     1
 44
1.0
  0
ENDSEC
  0
SECTION
  2
OBJECTS
  0
DICTIONARY
  5
C
330
0
100
AcDbDictionary
281
     1
  3
ACAD_GROUP
350
D
  3
ACAD_LAYOUT
350
1A
  3
ACAD_MLINESTYLE
350
17
  3
ACAD_PLOTSETTINGS
350
19
  3
ACAD_PLOTSTYLENAME
350
E
  3
ACAD_SCALELIST
350
47
  0
DICTIONARY
  5
D
102
{ACAD_REACTORS
330
C
102
}
330
C
100
AcDbDictionary
281
     1
  0
DICTIONARY
  5
1A
102
{ACAD_REACTORS
330
C
102
}
330
C
100
AcDbDictionary
281
     1
  3
Layout1
350
1E
  3
Layout2
350
26
  3
Model
350
22
  0
DICTIONARY
  5
17
102
{ACAD_REACTORS
330
C
102
}
330
C
100
AcDbDictionary
281
     1
  3
Standard
350
18
  0
DICTIONARY
  5
19
102
{ACAD_REACTORS
330
C
102
}
330
C
100
AcDbDictionary
281
     1
  0
ACDBDICTIONARYWDFLT
  5
E
102
{ACAD_REACTORS
330
C
102
}
330
C
100
AcDbDictionary
281
     1
  3
Normal
350
F
100
AcDbDictionaryWithDefault
340
F
  0
DICTIONARY
  5
47
102
{ACAD_REACTORS
330
C
102
}
330
C
100
AcDbDictionary
281
     1
  3
A0
350
48
  3
A1
350
49
  3
A2
350
4A
  3
A3
350
4B
  3
A4
350
4C
  3
A5
350
4D
  3
A6
350
4E
  3
A7
350
4F
  3
A8
350
50
  3
A9
350
51
  3
B0
350
52
  3
B1
350
53
  3
B2
350
54
  3
B3
350
55
  3
B4
350
56
  3
B5
350
57
  3
B6
350
58
  3
B7
350
59
  3
B8
350
5A
  3
B9
350
5B
  3
C0
350
5C
  3
C1
350
5D
  3
C2
350
5E
  3
C3
350
5F
  3
C4
350
60
  3
C5
350
61
  3
C6
350
62
  3
C7
350
63
  3
C8
350
64
  3
C9
350
65
  3
D0
350
66
  3
D1
350
67
  3
D2
350
68
  0
LAYOUT
  5
1E
102
{ACAD_REACTORS
330
1A
102
}
330
1A
100
AcDbPlotSettings
  1

  2
none_device
  4

  6

 40
0.0
 41
0.0
 42
0.0
 43
0.0
 44
0.0
 45
0.0
 46
0.0
 47
0.0
 48
0.0
 49
0.0
140
0.0
141
0.0
142
1.0
143
1.0
 70
   688
 72
     1
 73
     0
 74
     5
  7

 75
    16
147
1.0
148
0.0
149
0.0
100
AcDbLayout
  1
Layout1
 70
     1
 71
     1
 10
0.0
 20
0.0
 11
420.0
 21
297.0
 12
0.0
 22
0.0
 32
0.0
 14
1.0000000000E+20
 24
1.0000000000E+20
 34
1.0000000000E+20
 15
-1.0000000000E+20
 25
-1.0000000000E+20
 35
-1.0000000000E+20
146
0.0
 13
0.0
 23
0.0
 33
0.0
 16
1.0
 26
0.0
 36
0.0
 17
0.0
 27
1.0
 37
0.0
 76
     0
330
1B
  0
LAYOUT
  5
26
102
{ACAD_REACTORS
330
1A
102
}
330
1A
100
AcDbPlotSettings
  1

  2
none_device
  4

  6

 40
0.0
 41
0.0
 42
0.0
 43
0.0
 44
0.0
 45
0.0
 46
0.0
 47
0.0
 48
0.0
 49
0.0
140
0.0
141
0.0
142
1.0
143
1.0
 70
   688
 72
     1
 73
     0
 74
     5
  7

 75
    16
147
1.0
148
0.0
149
0.0
100
AcDbLayout
  1
Layout2
 70
     1
 71
     2
 10
0.0
 20
0.0
 11
0.0
 21
0.0
 12
0.0
 22
0.0
 32
0.0
 14
0.0
 24
0.0
 34
0.0
 15
0.0
 25
0.0
 35
0.0
146
0.0
 13
0.0
 23
0.0
 33
0.0
 16
1.0
 26
0.0
 36
0.0
 17
0.0
 27
1.0
 37
0.0
 76
     0
330
23
  0
LAYOUT
  5
22
102
{ACAD_REACTORS
330
1A
102
}
330
1A
100
AcDbPlotSettings
  1

  2
none_device
  4
Letter_(8.50_x_11.00_Inches)
  6

 40
6.35
 41
6.35
 42
6.35000508
 43
6.35000508
 44
215.9
 45
279.4
 46
0.0
 47
0.0
 48
0.0
 49
0.0
140
0.0
141
0.0
142
1.0
143
1.0
 70
  1712
 72
     1
 73
     0
 74
     0
  7

 75
     0
147
1.0
148
0.0
149
0.0
100
AcDbLayout
  1
Model
 70
     1
 71
     0
 10
0.0
 20
0.0
 11
297.0
 21
210.0
 12
0.0
 22
0.0
 32
0.0
 14
0.0
 24
0.0
 34
0.0
 15
297.0
 25
210.0
 35
0.0
146
0.0
 13
0.0
 23
0.0
 33
0.0
 16
1.0
 26
0.0
 36
0.0
 17
0.0
 27
1.0
 37
0.0
 76
     0
330
1F
331
29
  0
MLINESTYLE
  5
18
102
{ACAD_REACTORS
330
17
102
}
330
17
100
AcDbMlineStyle
  2
Standard
 70
     0
  3

 62
   256
 51
90.0
 52
90.0
 71
     2
 49
0.5
 62
   256
  6
BYLAYER
 49
-0.5
 62
   256
  6
BYLAYER
  0
ACDBPLACEHOLDER
  5
F
102
{ACAD_REACTORS
330
E
102
}
330
E
  0
SCALE
  5
48
102
{ACAD_REACTORS
330
47
102
}
330
47
100
AcDbScale
 70
     0
300
1:1
140
1.0
141
1.0
290
     1
  0
SCALE
  5
49
102
{ACAD_REACTORS
330
47
102
}
330
47
100
AcDbScale
 70
     0
300
1:2
140
1.0
141
2.0
290
     0
  0
SCALE
  5
4A
102
{ACAD_REACTORS
330
47
102
}
330
47
100
AcDbScale
 70
     0
300
1:4
140
1.0
141
4.0
290
     0
  0
SCALE
  5
4B
102
{ACAD_REACTORS
330
47
102
}
330
47
100
AcDbScale
 70
     0
300
1:5
140
1.0
141
5.0
290
     0
  0
SCALE
  5
4C
102
{ACAD_REACTORS
330
47
102
}
330
47
100
AcDbScale
 70
     0
300
1:8
140
1.0
141
8.0
290
     0
  0
SCALE
  5
4D
102
{ACAD_REACTORS
330
47
102
}
330
47
100
AcDbScale
 70
     0
300
1:10
140
1.0
141
10.0
290
     0
  0
SCALE
  5
4E
102
{ACAD_REACTORS
330
47
102
}
330
47
100
AcDbScale
 70
     0
300
1:16
140
1.0
141
16.0
290
     0
  0
SCALE
  5
4F
102
{ACAD_REACTORS
330
47
102
}
330
47
100
AcDbScale
 70
     0
300
1:20
140
1.0
141
20.0
290
     0
  0
SCALE
  5
50
102
{ACAD_REACTORS
330
47
102
}
330
47
100
AcDbScale
 70
     0
300
1:30
140
1.0
141
30.0
290
     0
  0
SCALE
  5
51
102
{ACAD_REACTORS
330
47
102
}
330
47
100
AcDbScale
 70
     0
300
1:40
140
1.0
141
40.0
290
     0
  0
SCALE
  5
52
102
{ACAD_REACTORS
330
47
102
}
330
47
100
AcDbScale
 70
     0
300
1:50
140
1.0
141
50.0
290
     0
  0
SCALE
  5
53
102
{ACAD_REACTORS
330
47
102
}
330
47
100
AcDbScale
 70
     0
300
1:100
140
1.0
141
100.0
290
     0
  0
SCALE
  5
54
102
{ACAD_REACTORS
330
47
102
}
330
47
100
AcDbScale
 70
     0
300
2:1
140
2.0
141
1.0
290
     0
  0
SCALE
  5
55
102
{ACAD_REACTORS
330
47
102
}
330
47
100
AcDbScale
 70
     0
300
4:1
140
4.0
141
1.0
290
     0
  0
SCALE
  5
56
102
{ACAD_REACTORS
330
47
102
}
330
47
100
AcDbScale
 70
     0
300
8:1
140
8.0
141
1.0
290
     0
  0
SCALE
  5
57
102
{ACAD_REACTORS
330
47
102
}
330
47
100
AcDbScale
 70
     0
300
10:1
140
10.0
141
1.0
290
     0
  0
SCALE
  5
58
102
{ACAD_REACTORS
330
47
102
}
330
47
100
AcDbScale
 70
     0
300
100:1
140
100.0
141
1.0
290
     0
  0
SCALE
  5
59
102
{ACAD_REACTORS
330
47
102
}
330
47
100
AcDbScale
 70
     0
300
1/128" = 1'-0"
140
0.0078125
141
12.0
290
     0
  0
SCALE
  5
5A
102
{ACAD_REACTORS
330
47
102
}
330
47
100
AcDbScale
 70
     0
300
1/64" = 1'-0"
140
0.015625
141
12.0
290
     0
  0
SCALE
  5
5B
102
{ACAD_REACTORS
330
47
102
}
330
47
100
AcDbScale
 70
     0
300
1/32" = 1'-0"
140
0.03125
141
12.0
290
     0
  0
SCALE
  5
5C
102
{ACAD_REACTORS
330
47
102
}
330
47
100
AcDbScale
 70
     0
300
1/16" = 1'-0"
140
0.0625
141
12.0
290
     0
  0
SCALE
  5
5D
102
{ACAD_REACTORS
330
47
102
}
330
47
100
AcDbScale
 70
     0
300
3/32" = 1'-0"
140
0.09375
141
12.0
290
     0
  0
SCALE
  5
5E
102
{ACAD_REACTORS
330
47
102
}
330
47
100
AcDbScale
 70
     0
300
1/8" = 1'-0"
140
0.125
141
12.0
290
     0
  0
SCALE
  5
5F
102
{ACAD_REACTORS
330
47
102
}
330
47
100
AcDbScale
 70
     0
300
3/16" = 1'-0"
140
0.1875
141
12.0
290
     0
  0
SCALE
  5
60
102
{ACAD_REACTORS
330
47
102
}
330
47
100
AcDbScale
 70
     0
300
1/4" = 1'-0"
140
0.25
141
12.0
290
     0
  0
SCALE
  5
61
102
{ACAD_REACTORS
330
47
102
}
330
47
100
AcDbScale
 70
     0
300
3/8" = 1'-0"
140
0.375
141
12.0
290
     0
  0
SCALE
  5
62
102
{ACAD_REACTORS
330
47
102
}
330
47
100
AcDbScale
 70
     0
300
1/2" = 1'-0"
140
0.5
141
12.0
290
     0
  0
SCALE
  5
63
102
{ACAD_REACTORS
330
47
102
}
330
47
100
AcDbScale
 70
     0
300
3/4" = 1'-0"
140
0.75
141
12.0
290
     0
  0
SCALE
  5
64
102
{ACAD_REACTORS
330
47
102
}
330
47
100
AcDbScale
 70
     0
300
1" = 1'-0"
140
1.0
141
12.0
290
     0
  0
SCALE
  5
65
102
{ACAD_REACTORS
330
47
102
}
330
47
100
AcDbScale
 70
     0
300
1-1/2" = 1'-0"
140
1.5
141
12.0
290
     0
  0
SCALE
  5
66
102
{ACAD_REACTORS
330
47
102
}
330
47
100
AcDbScale
 70
     0
300
3" = 1'-0"
140
3.0
141
12.0
290
     0
  0
SCALE
  5
67
102
{ACAD_REACTORS
330
47
102
}
330
47
100
AcDbScale
 70
     0
300
6" = 1'-0"
140
6.0
141
12.0
290
     0
  0
SCALE
  5
68
102
{ACAD_REACTORS
330
47
102
}
330
47
100
AcDbScale
 70
     0
300
1'-0" = 1'-0"
140
12.0
141
12.0
290
     0
  0
ENDSEC
  0
EOF
