ISO-10303-21;
HEADER;
FILE_DESCRIPTION (( 'STEP AP203' ),
    '1' );
FILE_NAME ('3501.STEP',
    '2021-09-29T12:30:12',
    ( '' ),
    ( '' ),
    'SwSTEP 2.0',
    'SolidWorks 2018',
    '' );
FILE_SCHEMA (( 'CONFIG_CONTROL_DESIGN' ));
ENDSEC;

DATA;
#1 = PERSON_AND_ORGANIZATION ( #156, #94 ) ;
#2 = PRODUCT_RELATED_PRODUCT_CATEGORY ( 'detail', '', ( #203 ) ) ;
#3 = CLOSED_SHELL ( 'NONE', ( #130, #11, #208 ) ) ;
#4 = CC_DESIGN_APPROVAL ( #40, ( #95 ) ) ;
#5 = LOCAL_TIME ( 14, 30, 12.00000000000000000, #121 ) ;
#6 = DIRECTION ( 'NONE',  ( -0.000000000000000000, -0.000000000000000000, -1.000000000000000000 ) ) ;
#7 = DIRECTION ( 'NONE',  ( -0.000000000000000000, -1.000000000000000000, -0.000000000000000000 ) ) ;
#8 = SECURITY_CLASSIFICATION ( '', '', #100 ) ;
#9 = MECHANICAL_CONTEXT ( 'NONE', #96, 'mechanical' ) ;
#10 = PERSON_AND_ORGANIZATION ( #156, #94 ) ;
#11 = ADVANCED_FACE ( 'NONE', ( #136 ), #199, .T. ) ;
#12 = ORIENTED_EDGE ( 'NONE', *, *, #183, .T. ) ;
#13 =( NAMED_UNIT ( * ) PLANE_ANGLE_UNIT ( ) SI_UNIT ( $, .RADIAN. ) );
#14 = PERSON_AND_ORGANIZATION_ROLE ( 'classification_officer' ) ;
#15 = DATE_TIME_ROLE ( 'creation_date' ) ;
#16 = DATE_AND_TIME ( #111, #150 ) ;
#17 = CC_DESIGN_PERSON_AND_ORGANIZATION_ASSIGNMENT ( #138, #48, ( #151 ) ) ;
#18 = DATE_AND_TIME ( #188, #107 ) ;
#19 = CC_DESIGN_APPROVAL ( #44, ( #22 ) ) ;
#20 = APPROVAL_DATE_TIME ( #53, #173 ) ;
#21 = DATE_AND_TIME ( #140, #169 ) ;
#22 = PRODUCT_DEFINITION_FORMATION_WITH_SPECIFIED_SOURCE ( 'ANY', '', #203, .NOT_KNOWN. ) ;
#23 = COORDINATED_UNIVERSAL_TIME_OFFSET ( 1, 0, .AHEAD. ) ;
#24 = DIRECTION ( 'NONE',  ( 0.000000000000000000, 1.000000000000000000, 0.000000000000000000 ) ) ;
#25 = COORDINATED_UNIVERSAL_TIME_OFFSET ( 1, 0, .AHEAD. ) ;
#26 = PRODUCT ( '3501', '3501', '', ( #84 ) ) ;
#27 = CC_DESIGN_PERSON_AND_ORGANIZATION_ASSIGNMENT ( #174, #66, ( #203 ) ) ;
#28 = PERSON_AND_ORGANIZATION ( #156, #94 ) ;
#29 = DIRECTION ( 'NONE',  ( -1.000000000000000000, 0.000000000000000000, 0.000000000000000000 ) ) ;
#30 = CIRCLE ( 'NONE', #171, 2.500000000000002665 ) ;
#31 = DIRECTION ( 'NONE',  ( 1.000000000000000000, 0.000000000000000000, 0.000000000000000000 ) ) ;
#32 = APPLICATION_CONTEXT ( 'configuration controlled 3d designs of mechanical parts and assemblies' ) ;
#33 = CARTESIAN_POINT ( 'NONE',  ( 0.000000000000000000, 20.00000000000000000, 0.000000000000000000 ) ) ;
#34 = SHAPE_DEFINITION_REPRESENTATION ( #54, #179 ) ;
#35 = APPLICATION_PROTOCOL_DEFINITION ( 'international standard', 'config_control_design', 1994, #146 ) ;
#36 = CC_DESIGN_SECURITY_CLASSIFICATION ( #8, ( #22 ) ) ;
#37 = COORDINATED_UNIVERSAL_TIME_OFFSET ( 1, 0, .AHEAD. ) ;
#38 = CALENDAR_DATE ( 2021, 29, 9 ) ;
#39 = CC_DESIGN_DATE_AND_TIME_ASSIGNMENT ( #85, #15, ( #95 ) ) ;
#40 = APPROVAL ( #211, 'UNSPECIFIED' ) ;
#41 = EDGE_LOOP ( 'NONE', ( #145 ) ) ;
#42 = FACE_OUTER_BOUND ( 'NONE', #50, .T. ) ;
#43 = DIRECTION ( 'NONE',  ( -0.000000000000000000, -1.000000000000000000, -0.000000000000000000 ) ) ;
#44 = APPROVAL ( #180, 'UNSPECIFIED' ) ;
#45 = COORDINATED_UNIVERSAL_TIME_OFFSET ( 1, 0, .AHEAD. ) ;
#46 = DIRECTION ( 'NONE',  ( 0.000000000000000000, 0.000000000000000000, 1.000000000000000000 ) ) ;
#47 = CC_DESIGN_PERSON_AND_ORGANIZATION_ASSIGNMENT ( #93, #65, ( #151 ) ) ;
#48 = PERSON_AND_ORGANIZATION_ROLE ( 'design_supplier' ) ;
#49 = PERSON_AND_ORGANIZATION_ROLE ( 'design_supplier' ) ;
#50 = EDGE_LOOP ( 'NONE', ( #12 ) ) ;
#51 = CARTESIAN_POINT ( 'NONE',  ( 0.000000000000000000, 20.00000000000000000, -2.500000000000002665 ) ) ;
#52 = APPROVAL_ROLE ( '' ) ;
#53 = DATE_AND_TIME ( #67, #74 ) ;
#54 = PRODUCT_DEFINITION_SHAPE ( 'NONE', 'NONE',  #95 ) ;
#55 = CC_DESIGN_SECURITY_CLASSIFICATION ( #106, ( #151 ) ) ;
#56 = PERSON_AND_ORGANIZATION ( #156, #94 ) ;
#57 = COORDINATED_UNIVERSAL_TIME_OFFSET ( 1, 0, .AHEAD. ) ;
#58 = CC_DESIGN_APPROVAL ( #119, ( #92 ) ) ;
#59 = CALENDAR_DATE ( 2021, 29, 9 ) ;
#60 = CARTESIAN_POINT ( 'NONE',  ( 0.000000000000000000, 24.33012701892219454, 0.000000000000000000 ) ) ;
#61 = COORDINATED_UNIVERSAL_TIME_OFFSET ( 1, 0, .AHEAD. ) ;
#62 = CC_DESIGN_PERSON_AND_ORGANIZATION_ASSIGNMENT ( #69, #49, ( #22 ) ) ;
#63 = DATE_TIME_ROLE ( 'classification_date' ) ;
#64 = DIRECTION ( 'NONE',  ( 0.000000000000000000, 0.000000000000000000, 1.000000000000000000 ) ) ;
#65 = PERSON_AND_ORGANIZATION_ROLE ( 'creator' ) ;
#66 = PERSON_AND_ORGANIZATION_ROLE ( 'design_owner' ) ;
#67 = CALENDAR_DATE ( 2021, 29, 9 ) ;
#68 = AXIS2_PLACEMENT_3D ( 'NONE', #112, #43, #76 ) ;
#69 = PERSON_AND_ORGANIZATION ( #156, #94 ) ;
#70 = DATE_AND_TIME ( #129, #90 ) ;
#71 = APPROVAL ( #164, 'UNSPECIFIED' ) ;
#72 = COORDINATED_UNIVERSAL_TIME_OFFSET ( 1, 0, .AHEAD. ) ;
#73 = AXIS2_PLACEMENT_3D ( 'NONE', #113, #7, #157 ) ;
#74 = LOCAL_TIME ( 14, 30, 12.00000000000000000, #77 ) ;
#75 = PERSON_AND_ORGANIZATION ( #156, #94 ) ;
#76 = DIRECTION ( 'NONE',  ( 0.000000000000000000, 0.000000000000000000, -1.000000000000000000 ) ) ;
#77 = COORDINATED_UNIVERSAL_TIME_OFFSET ( 1, 0, .AHEAD. ) ;
#78 = LOCAL_TIME ( 14, 30, 12.00000000000000000, #23 ) ;
#79 = PERSON_AND_ORGANIZATION_ROLE ( 'classification_officer' ) ;
#80 = CC_DESIGN_PERSON_AND_ORGANIZATION_ASSIGNMENT ( #10, #117, ( #22 ) ) ;
#81 = APPROVAL_STATUS ( 'not_yet_approved' ) ;
#82 = CIRCLE ( 'NONE', #73, 2.500000000000000000 ) ;
#83 = APPROVAL_ROLE ( '' ) ;
#84 = MECHANICAL_CONTEXT ( 'NONE', #131, 'mechanical' ) ;
#85 = DATE_AND_TIME ( #144, #5 ) ;
#86 = AXIS2_PLACEMENT_3D ( 'NONE', #60, #6, #29 ) ;
#87 = APPROVAL_DATE_TIME ( #70, #119 ) ;
#88 = AXIS2_PLACEMENT_3D ( 'NONE', #207, #46, #31 ) ;
#89 = APPROVAL_PERSON_ORGANIZATION ( #28, #40, #83 ) ;
#90 = LOCAL_TIME ( 14, 30, 12.00000000000000000, #115 ) ;
#91 = VERTEX_POINT ( 'NONE', #51 ) ;
#92 = PRODUCT_DEFINITION ( 'UNKNOWN', '', #151, #108 ) ;
#93 = PERSON_AND_ORGANIZATION ( #156, #94 ) ;
#94 = ORGANIZATION ( 'UNSPECIFIED', 'UNSPECIFIED', '' ) ;
#95 = PRODUCT_DEFINITION ( 'UNKNOWN', '', #22, #163 ) ;
#96 = APPLICATION_CONTEXT ( 'configuration controlled 3d designs of mechanical parts and assemblies' ) ;
#97 = APPROVAL_DATE_TIME ( #114, #44 ) ;
#98 = SECURITY_CLASSIFICATION_LEVEL ( 'unclassified' ) ;
#99 = FACE_OUTER_BOUND ( 'NONE', #167, .T. ) ;
#100 = SECURITY_CLASSIFICATION_LEVEL ( 'unclassified' ) ;
#101 = APPLICATION_PROTOCOL_DEFINITION ( 'international standard', 'config_control_design', 1994, #96 ) ;
#102 = DIRECTION ( 'NONE',  ( 1.000000000000000000, 0.000000000000000000, 0.000000000000000000 ) ) ;
#103 = APPROVAL_PERSON_ORGANIZATION ( #56, #71, #209 ) ;
#104 = PERSON_AND_ORGANIZATION ( #156, #94 ) ;
#105 = CC_DESIGN_APPROVAL ( #71, ( #8 ) ) ;
#106 = SECURITY_CLASSIFICATION ( '', '', #98 ) ;
#107 = LOCAL_TIME ( 14, 30, 12.00000000000000000, #45 ) ;
#108 = DESIGN_CONTEXT ( 'detailed design', #146, 'design' ) ;
#109 = AXIS2_PLACEMENT_3D ( 'NONE', #160, #64, #102 ) ;
#110 = CYLINDRICAL_SURFACE ( 'NONE', #68, 2.500000000000001332 ) ;
#111 = CALENDAR_DATE ( 2021, 29, 9 ) ;
#112 = CARTESIAN_POINT ( 'NONE',  ( 0.000000000000000000, 0.000000000000000000, 0.000000000000000000 ) ) ;
#113 = CARTESIAN_POINT ( 'NONE',  ( 0.000000000000000000, -3.061616997868383141E-16, 0.000000000000000000 ) ) ;
#114 = DATE_AND_TIME ( #178, #124 ) ;
#115 = COORDINATED_UNIVERSAL_TIME_OFFSET ( 1, 0, .AHEAD. ) ;
#116 = APPROVAL_ROLE ( '' ) ;
#117 = PERSON_AND_ORGANIZATION_ROLE ( 'creator' ) ;
#118 = APPROVAL_STATUS ( 'not_yet_approved' ) ;
#119 = APPROVAL ( #81, 'UNSPECIFIED' ) ;
#120 = PERSON_AND_ORGANIZATION_ROLE ( 'creator' ) ;
#121 = COORDINATED_UNIVERSAL_TIME_OFFSET ( 1, 0, .AHEAD. ) ;
#122 = CC_DESIGN_DATE_AND_TIME_ASSIGNMENT ( #159, #162, ( #92 ) ) ;
#123 = UNCERTAINTY_MEASURE_WITH_UNIT (LENGTH_MEASURE( 1.000000000000000082E-05 ), #196, 'distance_accuracy_value', 'NONE');
#124 = LOCAL_TIME ( 14, 30, 12.00000000000000000, #25 ) ;
#125 = PERSON_AND_ORGANIZATION ( #156, #94 ) ;
#126 = VERTEX_POINT ( 'NONE', #132 ) ;
#127 = DATE_AND_TIME ( #200, #212 ) ;
#128 = PLANE ( 'NONE',  #137 ) ;
#129 = CALENDAR_DATE ( 2021, 29, 9 ) ;
#130 = ADVANCED_FACE ( 'NONE', ( #99 ), #128, .F. ) ;
#131 = APPLICATION_CONTEXT ( 'configuration controlled 3d designs of mechanical parts and assemblies' ) ;
#132 = CARTESIAN_POINT ( 'NONE',  ( 0.000000000000000000, -3.061616997868383141E-16, -2.500000000000000000 ) ) ;
#133 = DATE_TIME_ROLE ( 'classification_date' ) ;
#134 =( NAMED_UNIT ( * ) SI_UNIT ( $, .STERADIAN. ) SOLID_ANGLE_UNIT ( ) );
#135 = PERSON_AND_ORGANIZATION ( #156, #94 ) ;
#136 = FACE_OUTER_BOUND ( 'NONE', #41, .T. ) ;
#137 = AXIS2_PLACEMENT_3D ( 'NONE', #175, #24, #154 ) ;
#138 = PERSON_AND_ORGANIZATION ( #156, #94 ) ;
#139 = CC_DESIGN_APPROVAL ( #173, ( #151 ) ) ;
#140 = CALENDAR_DATE ( 2021, 29, 9 ) ;
#141 = APPROVAL_DATE_TIME ( #127, #40 ) ;
#142 = CC_DESIGN_PERSON_AND_ORGANIZATION_ASSIGNMENT ( #125, #194, ( #92 ) ) ;
#143 = PRODUCT_DEFINITION_SHAPE ( 'NONE', 'NONE',  #92 ) ;
#144 = CALENDAR_DATE ( 2021, 29, 9 ) ;
#145 = ORIENTED_EDGE ( 'NONE', *, *, #183, .F. ) ;
#146 = APPLICATION_CONTEXT ( 'configuration controlled 3d designs of mechanical parts and assemblies' ) ;
#147 = CC_DESIGN_PERSON_AND_ORGANIZATION_ASSIGNMENT ( #152, #120, ( #95 ) ) ;
#148 = EDGE_CURVE ( 'NONE', #126, #126, #82, .T. ) ;
#149 = APPROVAL_PERSON_ORGANIZATION ( #135, #168, #181 ) ;
#150 = LOCAL_TIME ( 14, 30, 12.00000000000000000, #72 ) ;
#151 = PRODUCT_DEFINITION_FORMATION_WITH_SPECIFIED_SOURCE ( 'ANY', '', #26, .NOT_KNOWN. ) ;
#152 = PERSON_AND_ORGANIZATION ( #156, #94 ) ;
#153 = MANIFOLD_SOLID_BREP ( 'Rotation1', #3 ) ;
#154 = DIRECTION ( 'NONE',  ( 0.000000000000000000, -0.000000000000000000, 1.000000000000000000 ) ) ;
#155 = CC_DESIGN_DATE_AND_TIME_ASSIGNMENT ( #21, #63, ( #106 ) ) ;
#156 = PERSON ( 'UNSPECIFIED', 'UNSPECIFIED', 'UNSPECIFIED', ('UNSPECIFIED'), ('UNSPECIFIED'), ('UNSPECIFIED') ) ;
#157 = DIRECTION ( 'NONE',  ( 0.000000000000000000, 0.000000000000000000, -1.000000000000000000 ) ) ;
#158 = CC_DESIGN_PERSON_AND_ORGANIZATION_ASSIGNMENT ( #201, #177, ( #26 ) ) ;
#159 = DATE_AND_TIME ( #38, #78 ) ;
#160 = CARTESIAN_POINT ( 'NONE',  ( 0.000000000000000000, 0.000000000000000000, 0.000000000000000000 ) ) ;
#161 = DIRECTION ( 'NONE',  ( 0.000000000000000000, 0.000000000000000000, -1.000000000000000000 ) ) ;
#162 = DATE_TIME_ROLE ( 'creation_date' ) ;
#163 = DESIGN_CONTEXT ( 'detailed design', #32, 'design' ) ;
#164 = APPROVAL_STATUS ( 'not_yet_approved' ) ;
#165 = CC_DESIGN_DATE_AND_TIME_ASSIGNMENT ( #185, #133, ( #8 ) ) ;
#166 = APPROVAL_PERSON_ORGANIZATION ( #205, #44, #116 ) ;
#167 = EDGE_LOOP ( 'NONE', ( #172 ) ) ;
#168 = APPROVAL ( #118, 'UNSPECIFIED' ) ;
#169 = LOCAL_TIME ( 14, 30, 12.00000000000000000, #57 ) ;
#170 = APPROVAL_PERSON_ORGANIZATION ( #198, #119, #195 ) ;
#171 = AXIS2_PLACEMENT_3D ( 'NONE', #33, #176, #161 ) ;
#172 = ORIENTED_EDGE ( 'NONE', *, *, #148, .T. ) ;
#173 = APPROVAL ( #193, 'UNSPECIFIED' ) ;
#174 = PERSON_AND_ORGANIZATION ( #156, #94 ) ;
#175 = CARTESIAN_POINT ( 'NONE',  ( 0.000000000000000000, -1.530808498934191571E-16, 0.000000000000000000 ) ) ;
#176 = DIRECTION ( 'NONE',  ( -0.000000000000000000, -1.000000000000000000, -0.000000000000000000 ) ) ;
#177 = PERSON_AND_ORGANIZATION_ROLE ( 'design_owner' ) ;
#178 = CALENDAR_DATE ( 2021, 29, 9 ) ;
#179 = ADVANCED_BREP_SHAPE_REPRESENTATION ( '3501', ( #153, #109 ), #189 ) ;
#180 = APPROVAL_STATUS ( 'not_yet_approved' ) ;
#181 = APPROVAL_ROLE ( '' ) ;
#182 = APPROVAL_DATE_TIME ( #16, #71 ) ;
#183 = EDGE_CURVE ( 'NONE', #91, #91, #30, .T. ) ;
#184 = FACE_OUTER_BOUND ( 'NONE', #213, .T. ) ;
#185 = DATE_AND_TIME ( #59, #190 ) ;
#186 = CC_DESIGN_PERSON_AND_ORGANIZATION_ASSIGNMENT ( #104, #14, ( #8 ) ) ;
#187 = APPROVAL_DATE_TIME ( #18, #168 ) ;
#188 = CALENDAR_DATE ( 2021, 29, 9 ) ;
#189 =( GEOMETRIC_REPRESENTATION_CONTEXT ( 3 ) GLOBAL_UNCERTAINTY_ASSIGNED_CONTEXT ( ( #123 ) ) GLOBAL_UNIT_ASSIGNED_CONTEXT ( ( #196, #13, #134 ) ) REPRESENTATION_CONTEXT ( 'NONE', 'WORKASPACE' ) );
#190 = LOCAL_TIME ( 14, 30, 12.00000000000000000, #61 ) ;
#191 = APPLICATION_PROTOCOL_DEFINITION ( 'international standard', 'config_control_design', 1994, #131 ) ;
#192 = APPROVAL_PERSON_ORGANIZATION ( #75, #173, #52 ) ;
#193 = APPROVAL_STATUS ( 'not_yet_approved' ) ;
#194 = PERSON_AND_ORGANIZATION_ROLE ( 'creator' ) ;
#195 = APPROVAL_ROLE ( '' ) ;
#196 =( LENGTH_UNIT ( ) NAMED_UNIT ( * ) SI_UNIT ( .MILLI., .METRE. ) );
#197 = CC_DESIGN_PERSON_AND_ORGANIZATION_ASSIGNMENT ( #1, #79, ( #106 ) ) ;
#198 = PERSON_AND_ORGANIZATION ( #156, #94 ) ;
#199 = SPHERICAL_SURFACE ( 'NONE', #86, 5.000000000000000888 ) ;
#200 = CALENDAR_DATE ( 2021, 29, 9 ) ;
#201 = PERSON_AND_ORGANIZATION ( #156, #94 ) ;
#202 = PRODUCT_RELATED_PRODUCT_CATEGORY ( 'detail', '', ( #26 ) ) ;
#203 = PRODUCT ( '3501', '3501', '', ( #9 ) ) ;
#204 = CC_DESIGN_APPROVAL ( #168, ( #106 ) ) ;
#205 = PERSON_AND_ORGANIZATION ( #156, #94 ) ;
#206 = APPLICATION_PROTOCOL_DEFINITION ( 'international standard', 'config_control_design', 1994, #32 ) ;
#207 = CARTESIAN_POINT ( 'NONE',  ( 0.000000000000000000, 0.000000000000000000, 0.000000000000000000 ) ) ;
#208 = ADVANCED_FACE ( 'NONE', ( #184, #42 ), #110, .T. ) ;
#209 = APPROVAL_ROLE ( '' ) ;
#210 = ORIENTED_EDGE ( 'NONE', *, *, #148, .F. ) ;
#211 = APPROVAL_STATUS ( 'not_yet_approved' ) ;
#212 = LOCAL_TIME ( 14, 30, 12.00000000000000000, #37 ) ;
#213 = EDGE_LOOP ( 'NONE', ( #210 ) ) ;
ENDSEC;
END-ISO-10303-21;
