  0
SECTION
  2
HEADER
  9
$ACADVER
  1
AC1015
  9
$ACADMAINTVER
 70
     6
  9
$DWGCODEPAGE
  3
ANSI_1252
  9
$INSBASE
 10
0.0
 20
0.0
 30
0.0
  9
$EXTMIN
 10
0.0
 20
0.0
 30
0.0
  9
$EXTMAX
 10
14850.0
 20
10500.0
 30
0.0
  9
$LIMMIN
 10
0.0
 20
0.0
  9
$LIMMAX
 10
14850.0
 20
10500.0
  9
$ORTHOMODE
 70
     0
  9
$REGENMODE
 70
     1
  9
$FILLMODE
 70
     1
  9
$QTEXTMODE
 70
     0
  9
$MIRRTEXT
 70
     1
  9
$LTSCALE
 40
50.0
  9
$ATTMODE
 70
     1
  9
$TEXTSIZE
 40
175.0
  9
$TRACEWID
 40
1.0
  9
$TEXTSTYLE
  7
Standard
  9
$CLAYER
  8
0
  9
$CELTYPE
  6
ByLayer
  9
$CECOLOR
 62
   256
  9
$CELTSCALE
 40
1.0
  9
$DISPSILH
 70
     0
  9
$DIMSCALE
 40
1.0
  9
$DIMASZ
 40
165.1
  9
$DIMEXO
 40
50.0
  9
$DIMDLI
 40
3.75
  9
$DIMRND
 40
0.0
  9
$DIMDLE
 40
0.0
  9
$DIMEXE
 40
50.0
  9
$DIMTP
 40
0.0
  9
$DIMTM
 40
0.0
  9
$DIMTXT
 40
175.0
  9
$DIMCEN
 40
2.5
  9
$DIMTSZ
 40
0.0
  9
$DIMTOL
 70
     0
  9
$DIMLIM
 70
     0
  9
$DIMTIH
 70
     1
  9
$DIMTOH
 70
     1
  9
$DIMSE1
 70
     0
  9
$DIMSE2
 70
     0
  9
$DIMTAD
 70
     1
  9
$DIMZIN
 70
     0
  9
$DIMBLK
  1

  9
$DIMASO
 70
     1
  9
$DIMSHO
 70
     1
  9
$DIMPOST
  1

  9
$DIMAPOST
  1

  9
$DIMALT
 70
     0
  9
$DIMALTD
 70
     3
  9
$DIMALTF
 40
0.0393700787
  9
$DIMLFAC
 40
1.0
  9
$DIMTOFL
 70
     1
  9
$DIMTVP
 40
0.0
  9
$DIMTIX
 70
     0
  9
$DIMSOXD
 70
     0
  9
$DIMSAH
 70
     0
  9
$DIMBLK1
  1

  9
$DIMBLK2
  1

  9
$DIMSTYLE
  2
ISO-25
  9
$DIMCLRD
 70
     0
  9
$DIMCLRE
 70
     0
  9
$DIMCLRT
 70
     0
  9
$DIMTFAC
 40
1.0
  9
$DIMGAP
 40
76.2
  9
$DIMJUST
 70
     0
  9
$DIMSD1
 70
     0
  9
$DIMSD2
 70
     0
  9
$DIMTOLJ
 70
     0
  9
$DIMTZIN
 70
     0
  9
$DIMALTZ
 70
     0
  9
$DIMALTTZ
 70
     0
  9
$DIMUPT
 70
     0
  9
$DIMDEC
 70
     2
  9
$DIMTDEC
 70
     2
  9
$DIMALTU
 70
     2
  9
$DIMALTTD
 70
     3
  9
$DIMTXSTY
  7
Standard
  9
$DIMAUNIT
 70
     0
  9
$DIMADEC
 70
     2
  9
$DIMALTRND
 40
0.0
  9
$DIMAZIN
 70
     0
  9
$DIMDSEP
 70
    44
  9
$DIMATFIT
 70
     3
  9
$DIMFRAC
 70
     0
  9
$DIMLDRBLK
  1

  9
$DIMLUNIT
 70
     2
  9
$DIMLWD
 70
    -2
  9
$DIMLWE
 70
    -2
  9
$DIMTMOVE
 70
     0
  9
$LUNITS
 70
     2
  9
$LUPREC
 70
     2
  9
$SKETCHINC
 40
1.0
  9
$FILLETRAD
 40
10.0
  9
$AUNITS
 70
     0
  9
$AUPREC
 70
     2
  9
$MENU
  1
.
  9
$ELEVATION
 40
0.0
  9
$PELEVATION
 40
0.0
  9
$THICKNESS
 40
0.0
  9
$LIMCHECK
 70
     0
  9
$CHAMFERA
 40
0.0
  9
$CHAMFERB
 40
0.0
  9
$CHAMFERC
 40
0.0
  9
$CHAMFERD
 40
0.0
  9
$SKPOLY
 70
     0
  9
$TDCREATE
 40
2456902.496894873
  9
$TDUCREATE
 40
2456902.413561539
  9
$TDUPDATE
 40
2456902.496895984
  9
$TDUUPDATE
 40
2456902.41356265
  9
$TDINDWG
 40
0.0000000116
  9
$TDUSRTIMER
 40
0.0000000116
  9
$USRTIMER
 70
     1
  9
$ANGBASE
 50
0.0
  9
$ANGDIR
 70
     0
  9
$PDMODE
 70
     0
  9
$PDSIZE
 40
-1.0
  9
$PLINEWID
 40
0.0
  9
$SPLFRAME
 70
     0
  9
$SPLINETYPE
 70
     6
  9
$SPLINESEGS
 70
     8
  9
$HANDSEED
  5
411
  9
$SURFTAB1
 70
     6
  9
$SURFTAB2
 70
     6
  9
$SURFTYPE
 70
     6
  9
$SURFU
 70
     6
  9
$SURFV
 70
     6
  9
$UCSBASE
  2

  9
$UCSNAME
  2

  9
$UCSORG
 10
0.0
 20
0.0
 30
0.0
  9
$UCSXDIR
 10
1.0
 20
0.0
 30
0.0
  9
$UCSYDIR
 10
0.0
 20
1.0
 30
0.0
  9
$UCSORTHOREF
  2

  9
$UCSORTHOVIEW
 70
     0
  9
$UCSORGTOP
 10
0.0
 20
0.0
 30
0.0
  9
$UCSORGBOTTOM
 10
0.0
 20
0.0
 30
0.0
  9
$UCSORGLEFT
 10
0.0
 20
0.0
 30
0.0
  9
$UCSORGRIGHT
 10
0.0
 20
0.0
 30
0.0
  9
$UCSORGFRONT
 10
0.0
 20
0.0
 30
0.0
  9
$UCSORGBACK
 10
0.0
 20
0.0
 30
0.0
  9
$PUCSBASE
  2

  9
$PUCSNAME
  2

  9
$PUCSORG
 10
0.0
 20
0.0
 30
0.0
  9
$PUCSXDIR
 10
1.0
 20
0.0
 30
0.0
  9
$PUCSYDIR
 10
0.0
 20
1.0
 30
0.0
  9
$PUCSORTHOREF
  2

  9
$PUCSORTHOVIEW
 70
     0
  9
$PUCSORGTOP
 10
0.0
 20
0.0
 30
0.0
  9
$PUCSORGBOTTOM
 10
0.0
 20
0.0
 30
0.0
  9
$PUCSORGLEFT
 10
0.0
 20
0.0
 30
0.0
  9
$PUCSORGRIGHT
 10
0.0
 20
0.0
 30
0.0
  9
$PUCSORGFRONT
 10
0.0
 20
0.0
 30
0.0
  9
$PUCSORGBACK
 10
0.0
 20
0.0
 30
0.0
  9
$USERI1
 70
     0
  9
$USERI2
 70
     0
  9
$USERI3
 70
     0
  9
$USERI4
 70
     0
  9
$USERI5
 70
     0
  9
$USERR1
 40
0.0
  9
$USERR2
 40
0.0
  9
$USERR3
 40
0.0
  9
$USERR4
 40
0.0
  9
$USERR5
 40
0.0
  9
$WORLDVIEW
 70
     1
  9
$SHADEDGE
 70
     3
  9
$SHADEDIF
 70
    70
  9
$TILEMODE
 70
     1
  9
$MAXACTVP
 70
    64
  9
$PINSBASE
 10
0.0
 20
0.0
 30
0.0
  9
$PLIMCHECK
 70
     0
  9
$PEXTMIN
 10
1.0000000000E+20
 20
1.0000000000E+20
 30
1.0000000000E+20
  9
$PEXTMAX
 10
-1.0000000000E+20
 20
-1.0000000000E+20
 30
-1.0000000000E+20
  9
$PLIMMIN
 10
0.0
 20
0.0
  9
$PLIMMAX
 10
420.0
 20
297.0
  9
$UNITMODE
 70
     0
  9
$VISRETAIN
 70
     1
  9
$PLINEGEN
 70
     0
  9
$PSLTSCALE
 70
     1
  9
$TREEDEPTH
 70
  3020
  9
$CMLSTYLE
  2
Standard
  9
$CMLJUST
 70
     0
  9
$CMLSCALE
 40
20.0
  9
$PROXYGRAPHICS
 70
     1
  9
$MEASUREMENT
 70
     1
  9
$CELWEIGHT
370
    -1
  9
$ENDCAPS
280
     0
  9
$JOINSTYLE
280
     0
  9
$LWDISPLAY
290
     1
  9
$INSUNITS
 70
     4
  9
$HYPERLINKBASE
  1

  9
$STYLESHEET
  1

  9
$XEDIT
290
     1
  9
$CEPSNTYPE
380
     0
  9
$PSTYLEMODE
290
     1
  9
$FINGERPRINTGUID
  2
{6AD5E7CD-6E49-40F1-A568-F7A07BF0CC13}
  9
$VERSIONGUID
  2
{FAEB1C32-E019-11D5-929B-00C0DF256EC4}
  9
$EXTNAMES
290
     1
  9
$PSVPSCALE
 40
0.0
  9
$OLESTARTUP
290
     0
  0
ENDSEC
  0
SECTION
  2
CLASSES
  0
CLASS
  1
ACDBDICTIONARYWDFLT
  2
AcDbDictionaryWithDefault
  3
ObjectDBX Classes
 90
        0
280
     0
281
     0
  0
CLASS
  1
VISUALSTYLE
  2
AcDbVisualStyle
  3
ObjectDBX Classes
 90
     4095
280
     0
281
     0
  0
CLASS
  1
MATERIAL
  2
AcDbMaterial
  3
ObjectDBX Classes
 90
     1153
280
     0
281
     0
  0
CLASS
  1
SCALE
  2
AcDbScale
  3
ObjectDBX Classes
 90
     1153
280
     0
281
     0
  0
CLASS
  1
SUN
  2
AcDbSun
  3
SCENEOE
 90
     1153
280
     0
281
     0
  0
CLASS
  1
ACDBPLACEHOLDER
  2
AcDbPlaceHolder
  3
ObjectDBX Classes
 90
        0
280
     0
281
     0
  0
CLASS
  1
LAYOUT
  2
AcDbLayout
  3
ObjectDBX Classes
 90
        0
280
     0
281
     0
  0
ENDSEC
  0
SECTION
  2
TABLES
  0
TABLE
  2
VPORT
  5
8
330
0
100
AcDbSymbolTable
 70
     1
  0
VPORT
  5
29
330
8
100
AcDbSymbolTableRecord
100
AcDbViewportTableRecord
  2
*Active
 70
     0
 10
0.0
 20
0.0
 11
1.0
 21
1.0
 12
7425.0
 22
5250.0
 13
0.0
 23
0.0
 14
10.0
 24
10.0
 15
10.0
 25
10.0
 16
0.0
 26
0.0
 36
1.0
 17
0.0
 27
0.0
 37
0.0
 40
10500.0
 41
1.4142857143
 42
50.0
 43
0.0
 44
0.0
 50
0.0
 51
0.0
 71
     0
 72
  2000
 73
     1
 74
     3
 75
     0
 76
     0
 77
     0
 78
     0
281
     0
 65
     1
110
0.0
120
0.0
130
0.0
111
1.0
121
0.0
131
0.0
112
0.0
122
1.0
132
0.0
 79
     0
146
0.0
  0
ENDTAB
  0
TABLE
  2
LTYPE
  5
5
330
0
100
AcDbSymbolTable
 70
     6
  0
LTYPE
  5
14
330
5
100
AcDbSymbolTableRecord
100
AcDbLinetypeTableRecord
  2
ByBlock
 70
     0
  3

 72
    65
 73
     0
 40
0.0
  0
LTYPE
  5
15
330
5
100
AcDbSymbolTableRecord
100
AcDbLinetypeTableRecord
  2
ByLayer
 70
     0
  3

 72
    65
 73
     0
 40
0.0
  0
LTYPE
  5
16
330
5
100
AcDbSymbolTableRecord
100
AcDbLinetypeTableRecord
  2
Continuous
 70
     0
  3
Solid line
 72
    65
 73
     0
 40
0.0
  0
LTYPE
  5
6A
330
5
100
AcDbSymbolTableRecord
100
AcDbLinetypeTableRecord
  2
HIDDEN
 70
     0
  3
Hidden __ __ __ __ __ __ __ __ __ __ __ __ __ __
 72
    65
 73
     2
 40
1.905
 49
1.27
 74
     0
 49
-0.635
 74
     0
  0
LTYPE
  5
6B
330
5
100
AcDbSymbolTableRecord
100
AcDbLinetypeTableRecord
  2
PHANTOM
 70
     0
  3
Phantom ______  __  __  ______  __  __  ______
 72
    65
 73
     6
 40
12.7
 49
6.35
 74
     0
 49
-1.27
 74
     0
 49
1.27
 74
     0
 49
-1.27
 74
     0
 49
1.27
 74
     0
 49
-1.27
 74
     0
  0
LTYPE
  5
6C
330
5
100
AcDbSymbolTableRecord
100
AcDbLinetypeTableRecord
  2
CENTER
 70
     0
  3
Center ____ _ ____ _ ____ _ ____ _ ____ _ ____
 72
    65
 73
     4
 40
10.16
 49
6.35
 74
     0
 49
-1.27
 74
     0
 49
1.27
 74
     0
 49
-1.27
 74
     0
  0
LTYPE
  5
6D
330
5
100
AcDbSymbolTableRecord
100
AcDbLinetypeTableRecord
  2
CENTERX2
 70
     0
  3
Center (2x) ________  __  ________  __  _____
 72
    65
 73
     4
 40
20.32
 49
12.7
 74
     0
 49
-2.54
 74
     0
 49
2.54
 74
     0
 49
-2.54
 74
     0
  0
LTYPE
  5
6E
330
5
100
AcDbSymbolTableRecord
100
AcDbLinetypeTableRecord
  2
DOT2
 70
     0
  3
Dot (.5x) ........................................
 72
    65
 73
     2
 40
0.635
 49
0.0
 74
     0
 49
-0.635
 74
     0
  0
ENDTAB
  0
TABLE
  2
LAYER
  5
2
330
0
100
AcDbSymbolTable
 70
     2
  0
LAYER
  5
10
330
2
100
AcDbSymbolTableRecord
100
AcDbLayerTableRecord
  2
0
 70
     0
 62
     7
  6
Continuous
370
    -3
390
F
  0
LAYER
  5
6F
330
2
100
AcDbSymbolTableRecord
100
AcDbLayerTableRecord
  2
FORMAT
 70
     0
 62
     7
  6
Continuous
370
    -3
390
F
  0
ENDTAB
  0
TABLE
  2
STYLE
  5
3
330
0
100
AcDbSymbolTable
 70
     3
  0
STYLE
  5
11
330
3
100
AcDbSymbolTableRecord
100
AcDbTextStyleTableRecord
  2
Standard
 70
     0
 40
0.0
 41
1.0
 50
0.0
 71
     0
 42
175.0
  3
txt
  4

  0
STYLE
  5
8C
330
3
100
AcDbSymbolTableRecord
100
AcDbTextStyleTableRecord
  2
SLDTEXTSTYLE0
 70
     0
 40
0.0
 41
0.75
 50
0.0
 71
     0
 42
175.0
  3
TXT
  4

  0
STYLE
  5
94
330
3
100
AcDbSymbolTableRecord
100
AcDbTextStyleTableRecord
  2
SLDTEXTSTYLE1
 70
     0
 40
0.0
 41
0.6923076923
 50
0.0
 71
     0
 42
175.0
  3
TXT
  4

  0
ENDTAB
  0
TABLE
  2
VIEW
  5
6
330
0
100
AcDbSymbolTable
 70
     0
  0
ENDTAB
  0
TABLE
  2
UCS
  5
7
330
0
100
AcDbSymbolTable
 70
     0
  0
ENDTAB
  0
TABLE
  2
APPID
  5
9
330
0
100
AcDbSymbolTable
 70
     1
  0
APPID
  5
12
330
9
100
AcDbSymbolTableRecord
100
AcDbRegAppTableRecord
  2
ACAD
 70
     0
  0
ENDTAB
  0
TABLE
  2
DIMSTYLE
  5
A
330
0
100
AcDbSymbolTable
 70
     1
100
AcDbDimStyleTable
  0
DIMSTYLE
105
27
330
A
100
AcDbSymbolTableRecord
100
AcDbDimStyleTableRecord
  2
ISO-25
 70
     0
 41
2.5
 42
0.625
 43
3.75
 44
1.25
 73
     0
 74
     0
 77
     1
 78
     8
140
2.5
141
2.5
143
0.0393700787
147
0.625
171
     3
172
     1
178
     0
271
     2
272
     2
274
     3
278
    44
283
     0
284
     8
340
11
  0
ENDTAB
  0
TABLE
  2
BLOCK_RECORD
  5
1
330
0
100
AcDbSymbolTable
 70
     1
  0
BLOCK_RECORD
  5
1F
330
1
100
AcDbSymbolTableRecord
100
AcDbBlockTableRecord
  2
*Model_Space
340
22
  0
BLOCK_RECORD
  5
1B
330
1
100
AcDbSymbolTableRecord
100
AcDbBlockTableRecord
  2
*Paper_Space
340
1E
  0
BLOCK_RECORD
  5
23
330
1
100
AcDbSymbolTableRecord
100
AcDbBlockTableRecord
  2
*Paper_Space0
340
26
  0
ENDTAB
  0
ENDSEC
  0
SECTION
  2
BLOCKS
  0
BLOCK
  5
20
330
1F
100
AcDbEntity
  8
0
100
AcDbBlockBegin
  2
*Model_Space
 70
     0
 10
0.0
 20
0.0
 30
0.0
  3
*Model_Space
  1
*Model_Space
  0
ENDBLK
  5
21
330
1F
100
AcDbEntity
  8
0
100
AcDbBlockEnd
  0
BLOCK
  5
1C
330
1B
100
AcDbEntity
 67
     1
  8
0
100
AcDbBlockBegin
  2
*Paper_Space
 70
     0
 10
0.0
 20
0.0
 30
0.0
  3
*Paper_Space
  1
*Paper_Space
  0
ENDBLK
  5
1D
330
1B
100
AcDbEntity
 67
     1
  8
0
100
AcDbBlockEnd
  0
BLOCK
  5
24
330
23
100
AcDbEntity
  8
0
100
AcDbBlockBegin
  2
*Paper_Space0
 70
     0
 10
0.0
 20
0.0
 30
0.0
  3
*Paper_Space0
  1
*Paper_Space0
  0
ENDBLK
  5
25
330
23
100
AcDbEntity
  8
0
100
AcDbBlockEnd
  0
ENDSEC
  0
SECTION
  2
ENTITIES
  0
LINE
  5
70
330
1F
100
AcDbEntity
  8
0
  6
Continuous
 62
     7
370
     0
100
AcDbLine
 10
14600.0
 20
10250.0
 30
0.0
 11
14600.0
 21
250.0
 31
0.0
  0
LINE
  5
71
330
1F
100
AcDbEntity
  8
0
  6
Continuous
 62
     7
370
     0
100
AcDbLine
 10
7970.0
 20
1737.5
 30
0.0
 11
8706.5
 21
1737.5
 31
0.0
  0
LINE
  5
72
330
1F
100
AcDbEntity
  8
0
  6
Continuous
 62
     7
370
     0
100
AcDbLine
 10
10180.0
 20
1737.5
 30
0.0
 11
14600.0
 21
1737.5
 31
0.0
  0
LINE
  5
73
330
1F
100
AcDbEntity
  8
0
  6
Continuous
 62
     7
370
     0
100
AcDbLine
 10
7970.0
 20
462.5
 30
0.0
 11
14600.0
 21
462.5
 31
0.0
  0
LINE
  5
74
330
1F
100
AcDbEntity
  8
0
  6
Continuous
 62
     7
370
     0
100
AcDbLine
 10
7970.0
 20
1737.5
 30
0.0
 11
7970.0
 21
1418.75
 31
0.0
  0
LINE
  5
75
330
1F
100
AcDbEntity
  8
0
  6
Continuous
 62
     7
370
     0
100
AcDbLine
 10
14600.0
 20
1100.0
 30
0.0
 11
13950.0
 21
1100.0
 31
0.0
  0
LINE
  5
76
330
1F
100
AcDbEntity
  8
0
  6
Continuous
 62
     7
370
     0
100
AcDbLine
 10
9443.0
 20
1100.0
 30
0.0
 11
10180.0
 21
1100.0
 31
0.0
  0
LINE
  5
77
330
1F
100
AcDbEntity
  8
0
  6
Continuous
 62
     7
370
     0
100
AcDbLine
 10
10180.0
 20
1737.5
 30
0.0
 11
10180.0
 21
250.0
 31
0.0
  0
LINE
  5
78
330
1F
100
AcDbEntity
  8
0
  6
Continuous
 62
     7
370
     0
100
AcDbLine
 10
12390.0
 20
250.0
 30
0.0
 11
12390.0
 21
462.5
 31
0.0
  0
LINE
  5
79
330
1F
100
AcDbEntity
  8
0
  6
Continuous
 62
     7
370
     0
100
AcDbLine
 10
8706.5
 20
1737.5
 30
0.0
 11
9443.0
 21
1737.5
 31
0.0
  0
LINE
  5
7A
330
1F
100
AcDbEntity
  8
0
  6
Continuous
 62
     7
370
     0
100
AcDbLine
 10
13950.0
 20
462.5
 30
0.0
 11
13950.0
 21
774.7484680088
 31
0.0
  0
LINE
  5
7B
330
1F
100
AcDbEntity
  8
0
  6
Continuous
 62
     7
370
     0
100
AcDbLine
 10
9443.0
 20
1737.5
 30
0.0
 11
10180.0
 21
1737.5
 31
0.0
  0
LINE
  5
7C
330
1F
100
AcDbEntity
  8
0
  6
Continuous
 62
     7
370
     0
100
AcDbLine
 10
14600.0
 20
774.7484680088
 30
0.0
 11
13950.0
 21
774.7484680088
 31
0.0
  0
LINE
  5
7D
330
1F
100
AcDbEntity
  8
0
  6
Continuous
 62
     7
370
     0
100
AcDbLine
 10
10180.0
 20
1100.0
 30
0.0
 11
13950.0
 21
1100.0
 31
0.0
  0
LINE
  5
7E
330
1F
100
AcDbEntity
  8
0
  6
Continuous
 62
     7
370
     0
100
AcDbLine
 10
9443.0
 20
1737.5
 30
0.0
 11
9443.0
 21
1100.0
 31
0.0
  0
LINE
  5
7F
330
1F
100
AcDbEntity
  8
0
  6
Continuous
 62
     7
370
     0
100
AcDbLine
 10
9443.0
 20
1100.0
 30
0.0
 11
8706.5
 21
1100.0
 31
0.0
  0
LINE
  5
80
330
1F
100
AcDbEntity
  8
0
  6
Continuous
 62
     7
370
     0
100
AcDbLine
 10
14600.0
 20
10250.0
 30
0.0
 11
250.0
 21
10250.0
 31
0.0
  0
LINE
  5
81
330
1F
100
AcDbEntity
  8
0
  6
Continuous
 62
     7
370
     0
100
AcDbLine
 10
250.0
 20
10250.0
 30
0.0
 11
250.0
 21
250.0
 31
0.0
  0
LINE
  5
82
330
1F
100
AcDbEntity
  8
0
  6
Continuous
 62
     7
370
     0
100
AcDbLine
 10
250.0
 20
250.0
 30
0.0
 11
14600.0
 21
250.0
 31
0.0
  0
LINE
  5
83
330
1F
100
AcDbEntity
  8
0
  6
Continuous
 62
     7
370
     0
100
AcDbLine
 10
8706.5
 20
1100.0
 30
0.0
 11
8706.5
 21
1737.5
 31
0.0
  0
LINE
  5
84
330
1F
100
AcDbEntity
  8
0
  6
Continuous
 62
     7
370
     0
100
AcDbLine
 10
8706.5
 20
1100.0
 30
0.0
 11
7970.0
 21
1100.0
 31
0.0
  0
LINE
  5
85
330
1F
100
AcDbEntity
  8
0
  6
Continuous
 62
     7
370
     0
100
AcDbLine
 10
13950.0
 20
774.7484680088
 30
0.0
 11
13950.0
 21
1100.0
 31
0.0
  0
LINE
  5
86
330
1F
100
AcDbEntity
  8
0
  6
Continuous
 62
     7
370
     0
100
AcDbLine
 10
7970.0
 20
1418.75
 30
0.0
 11
8706.5
 21
1418.75
 31
0.0
  0
LINE
  5
87
330
1F
100
AcDbEntity
  8
0
  6
Continuous
 62
     7
370
     0
100
AcDbLine
 10
8706.5
 20
1418.75
 30
0.0
 11
9443.0
 21
1418.75
 31
0.0
  0
LINE
  5
88
330
1F
100
AcDbEntity
  8
0
  6
Continuous
 62
     7
370
     0
100
AcDbLine
 10
9443.0
 20
1418.75
 30
0.0
 11
10180.0
 21
1418.75
 31
0.0
  0
LINE
  5
89
330
1F
100
AcDbEntity
  8
0
  6
Continuous
 62
     7
370
     0
100
AcDbLine
 10
7970.0
 20
1100.0
 30
0.0
 11
7970.0
 21
1418.75
 31
0.0
  0
LINE
  5
8A
330
1F
100
AcDbEntity
  8
0
  6
Continuous
 62
     7
370
     0
100
AcDbLine
 10
7970.0
 20
1100.0
 30
0.0
 11
7970.0
 21
462.5
 31
0.0
  0
LINE
  5
8B
330
1F
100
AcDbEntity
  8
0
  6
Continuous
 62
     7
370
     0
100
AcDbLine
 10
7970.0
 20
250.0
 30
0.0
 11
7970.0
 21
462.5
 31
0.0
  0
MTEXT
  5
8D
330
1F
100
AcDbEntity
  8
0
  6
Continuous
 62
     7
370
     0
100
AcDbMText
 10
14013.846863997
 20
971.6222473842
 30
0.0
 40
75.0
 41
0.0
 71
     1
 72
     1
  1
Blattformat
  7
SLDTEXTSTYLE0
 73
     1
 44
1.0
  0
MTEXT
  5
8E
330
1F
100
AcDbEntity
  8
0
  6
Continuous
 62
     7
370
     0
100
AcDbMText
 10
8118.2120446351
 20
1293.7465234676
 30
0.0
 40
75.0
 41
0.0
 71
     1
 72
     1
  1
Ch. Höfig
  7
SLDTEXTSTYLE0
 73
     1
 44
1.0
  0
MTEXT
  5
8F
330
1F
100
AcDbEntity
  8
0
  6
Continuous
 62
     7
370
     0
100
AcDbMText
 10
8338.8098912947
 20
1610.1782907916
 30
0.0
 40
75.0
 41
0.0
 71
     2
 72
     1
  1
Name
  7
SLDTEXTSTYLE0
 73
     1
 44
1.0
  0
MTEXT
  5
90
330
1F
100
AcDbEntity
  8
0
  6
Continuous
 62
     7
370
     0
100
AcDbMText
 10
8022.2931154381
 20
1049.3028144623
 30
0.0
 40
75.0
 41
0.0
 71
     1
 72
     1
  1
Werkstoff:
  7
SLDTEXTSTYLE0
 73
     1
 44
1.0
  0
MTEXT
  5
91
330
1F
100
AcDbEntity
  8
0
  6
Continuous
 62
     7
370
     0
100
AcDbMText
 10
10243.2492951712
 20
1612.3050731487
 30
0.0
 40
75.0
 41
0.0
 71
     1
 72
     1
  1
Artikelnummer
  7
SLDTEXTSTYLE0
 73
     1
 44
1.0
  0
MTEXT
  5
92
330
1F
100
AcDbEntity
  8
0
  6
Continuous
 62
     7
370
     0
100
AcDbMText
 10
10243.6983058746
 20
993.4318913516
 30
0.0
 40
75.0
 41
0.0
 71
     1
 72
     1
  1
Hersteller
  7
SLDTEXTSTYLE0
 73
     1
 44
1.0
  0
MTEXT
  5
93
330
1F
100
AcDbEntity
  8
0
  6
Continuous
 62
     7
370
     0
100
AcDbMText
 10
10243.6983058746
 20
395.0043637266
 30
0.0
 40
75.0
 41
0.0
 71
     1
 72
     1
  1
Massstab: 1:50
  7
SLDTEXTSTYLE0
 73
     1
 44
1.0
  0
MTEXT
  5
95
330
1F
100
AcDbEntity
  8
0
  6
Continuous
 62
     7
370
     0
100
AcDbMText
 10
12463.9147213908
 20
395.0043637266
 30
0.0
 40
75.0
 41
0.0
 71
     1
 72
     1
  1
Blatt 1 von 1
  7
SLDTEXTSTYLE1
 73
     1
 44
1.0
  0
MTEXT
  5
96
330
1F
100
AcDbEntity
  8
0
  6
Continuous
 62
     7
370
     0
100
AcDbMText
 10
14150.9100625978
 20
710.7246793997
 30
0.0
 40
145.5208333333
 41
0.0
 71
     1
 72
     1
  1
A4
  7
SLDTEXTSTYLE0
 73
     1
 44
1.0
  0
MTEXT
  5
97
330
1F
100
AcDbEntity
  8
0
  6
Continuous
 62
     7
370
     0
100
AcDbMText
 10
12239.2860540881
 20
914.3859686823
 30
0.0
 40
264.5833333333
 41
0.0
 71
     2
 72
     1
  1
Feldmann GmbH
  7
SLDTEXTSTYLE0
 73
     1
 44
1.0
  0
MTEXT
  5
98
330
1F
100
AcDbEntity
  8
0
  6
Continuous
 62
     7
370
     0
100
AcDbMText
 10
9812.717449829
 20
1610.1782907916
 30
0.0
 40
75.0
 41
0.0
 71
     2
 72
     1
  1
Datum
  7
SLDTEXTSTYLE0
 73
     1
 44
1.0
  0
MTEXT
  5
99
330
1F
100
AcDbEntity
  8
0
  6
Continuous
 62
     7
370
     0
100
AcDbMText
 10
9001.3375475168
 20
1293.7465234676
 30
0.0
 40
75.0
 41
0.0
 71
     1
 72
     1
  1
CH
  7
SLDTEXTSTYLE0
 73
     1
 44
1.0
  0
MTEXT
  5
9A
330
1F
100
AcDbEntity
  8
0
  6
Continuous
 62
     7
370
     0
100
AcDbMText
 10
9569.8649653201
 20
1293.848354147
 30
0.0
 40
75.0
 41
0.0
 71
     1
 72
     1
  1
01.09.2014
  7
SLDTEXTSTYLE0
 73
     1
 44
1.0
  0
MTEXT
  5
9B
330
1F
100
AcDbEntity
  8
0
  6
Continuous
 62
     7
370
     0
100
AcDbMText
 10
9080.545520667
 20
395.6218184716
 30
0.0
 40
75.0
 41
0.0
 71
     2
 72
     1
  1
Gewicht 16.088 kg
  7
SLDTEXTSTYLE0
 73
     1
 44
1.0
  0
MTEXT
  5
9C
330
1F
100
AcDbEntity
  8
0
  6
Continuous
 62
     7
370
     0
100
AcDbMText
 10
9075.9413027092
 20
779.8860092213
 30
0.0
 40
119.0625
 41
0.0
 71
     2
 72
     1
  1
1.0037 (S235JR)
  7
SLDTEXTSTYLE0
 73
     1
 44
1.0
  0
MTEXT
  5
9D
330
1F
100
AcDbEntity
  8
0
  6
Continuous
 62
     7
370
     0
100
AcDbMText
 10
11536.2591757092
 20
1468.8109809734
 30
0.0
 40
211.6666666667
 41
0.0
 71
     2
 72
     1
  1
6110
  7
SLDTEXTSTYLE0
 73
     1
 44
1.0
  0
MTEXT
  5
9E
330
1F
100
AcDbEntity
  8
0
  6
Continuous
 62
     7
370
     0
100
AcDbMText
 10
9087.6500891234
 20
1602.9519504981
 30
0.0
 40
75.0
 41
0.0
 71
     2
 72
     1
  1
Signatur
  7
SLDTEXTSTYLE0
 73
     1
 44
1.0
  0
LINE
  5
9F
330
1F
100
AcDbEntity
  8
0
  6
Continuous
 62
     7
370
    15
100
AcDbLine
 10
3367.8065361305
 20
8538.9752724895
 30
0.0
 11
3365.8271004529
 21
8538.4746698418
 31
0.0
  0
ARC
  5
A0
330
1F
100
AcDbEntity
  8
0
  6
Continuous
 62
     7
370
    15
100
AcDbCircle
 10
3369.0714676287
 20
8533.973517415
 30
0.0
 40
5.159225098910265
100
AcDbArc
 50
100.6424541909
 51
104.1923873893
  0
ARC
  5
A1
330
1F
100
AcDbEntity
  8
0
  6
Continuous
 62
     7
370
    15
100
AcDbCircle
 10
3364.5620622051
 20
8543.4769583866
 30
0.0
 40
5.159769567566082
100
AcDbArc
 50
281.1683790959
 51
282.6803133896
  0
LINE
  5
A2
330
1F
100
AcDbEntity
  8
0
  6
Continuous
 62
     7
370
    15
100
AcDbLine
 10
3365.5614730519
 20
8538.4149031469
 30
0.0
 11
3363.890254273
 21
8538.0849504599
 31
0.0
  0
ARC
  5
A3
330
1F
100
AcDbEntity
  8
0
  6
Continuous
 62
     7
370
    15
100
AcDbCircle
 10
3364.8894174789
 20
8533.0240568442
 30
0.0
 40
5.158582306682769
100
AcDbArc
 50
101.1681802715
 51
104.8206501635
  0
ARC
  5
A4
330
1F
100
AcDbEntity
  8
0
  6
Continuous
 62
     7
370
    15
100
AcDbCircle
 10
3364.8882176736
 20
8533.0285749405
 30
0.0
 40
5.153907618448547
100
AcDbArc
 50
104.8206036224
 51
108.4752821293
  0
ARC
  5
A5
330
1F
100
AcDbEntity
  8
0
  6
Continuous
 62
     7
370
    15
100
AcDbCircle
 10
3364.8864152684
 20
8533.033957325
 30
0.0
 40
5.148231465504287
100
AcDbArc
 50
108.475239209
 51
112.1326039783
  0
ARC
  5
A6
330
1F
100
AcDbEntity
  8
0
  6
Continuous
 62
     7
370
    15
100
AcDbCircle
 10
3364.8839319645
 20
8533.0400538003
 30
0.0
 40
5.141648624327671
100
AcDbArc
 50
112.1325653734
 51
115.7930516886
  0
ARC
  5
A7
330
1F
100
AcDbEntity
  8
0
  6
Continuous
 62
     7
370
    15
100
AcDbCircle
 10
3364.880718162
 20
8533.0466969972
 30
0.0
 40
5.134268883006111
100
AcDbArc
 50
115.7930180348
 51
119.4570117112
  0
ARC
  5
A8
330
1F
100
AcDbEntity
  8
0
  6
Continuous
 62
     7
370
    15
100
AcDbCircle
 10
3364.876755386
 20
8533.0537083393
 30
0.0
 40
5.12621515685874
100
AcDbArc
 50
119.4569835754
 51
123.1248145391
  0
ARC
  5
A9
330
1F
100
AcDbEntity
  8
0
  6
Continuous
 62
     7
370
    15
100
AcDbCircle
 10
3364.8720575398
 20
8533.0609043858
 30
0.0
 40
5.117621389277583
100
AcDbArc
 50
123.1247924088
 51
126.7967290668
  0
ARC
  5
AA
330
1F
100
AcDbEntity
  8
0
  6
Continuous
 62
     7
370
    15
100
AcDbCircle
 10
3364.8666709396
 20
8533.0681033191
 30
0.0
 40
5.108630277047789
100
AcDbArc
 50
126.7967133411
 51
130.4729578456
  0
ARC
  5
AB
330
1F
100
AcDbEntity
  8
0
  6
Continuous
 62
     7
370
    15
100
AcDbCircle
 10
3393.4713000277
 20
8499.5450280981
 30
0.0
 40
49.17700190021309
100
AcDbArc
 50
130.4734634712
 51
131.5145916018
  0
ARC
  5
AC
330
1F
100
AcDbEntity
  8
0
  6
Continuous
 62
     7
370
    15
100
AcDbCircle
 10
3393.4545053133
 20
8499.5640011228
 30
0.0
 40
49.15166342952666
100
AcDbArc
 50
131.5145914411
 51
132.5560763131
  0
ARC
  5
AD
330
1F
100
AcDbEntity
  8
0
  6
Continuous
 62
     7
370
    15
100
AcDbCircle
 10
3393.4373125913
 20
8499.5827267116
 30
0.0
 40
49.12624223041582
100
AcDbArc
 50
132.5560761967
 51
133.5979203319
  0
ARC
  5
AE
330
1F
100
AcDbEntity
  8
0
  6
Continuous
 62
     7
370
    15
100
AcDbCircle
 10
3393.4197484459
 20
8499.6011721326
 30
0.0
 40
49.10077199754777
100
AcDbArc
 50
133.59792026
 51
134.6401246622
  0
ARC
  5
AF
330
1F
100
AcDbEntity
  8
0
  6
Continuous
 62
     7
370
    15
100
AcDbCircle
 10
3393.4018409869
 20
8499.6193059371
 30
0.0
 40
49.0752864731616
100
AcDbArc
 50
134.640124635
 51
135.6826898324
  0
ARC
  5
B0
330
1F
100
AcDbEntity
  8
0
  6
Continuous
 62
     7
370
    15
100
AcDbCircle
 10
3364.5624309246
 20
8543.4753210309
 30
0.0
 40
5.15809120888704
100
AcDbArc
 50
282.6803099589
 51
284.1925725209
  0
ARC
  5
B1
330
1F
100
AcDbEntity
  8
0
  6
Continuous
 62
     7
370
    15
100
AcDbCircle
 10
3393.3651157377
 20
8499.6545198282
 30
0.0
 40
49.02440448746988
100
AcDbArc
 50
136.725615956
 51
137.768902418
  0
ARC
  5
B2
330
1F
100
AcDbEntity
  8
0
  6
Continuous
 62
     7
370
    15
100
AcDbCircle
 10
3393.346361092
 20
8499.671544184
 30
0.0
 40
48.99907534569905
100
AcDbArc
 50
137.7689025254
 51
138.8125484994
  0
ARC
  5
B3
330
1F
100
AcDbEntity
  8
0
  6
Continuous
 62
     7
370
    15
100
AcDbCircle
 10
3360.2939782423
 20
8528.5955121284
 30
0.0
 40
5.078056245735364
100
AcDbArc
 50
138.8259498863
 51
142.7518317151
  0
ARC
  5
B4
330
1F
100
AcDbEntity
  8
0
  6
Continuous
 62
     7
370
    15
100
AcDbCircle
 10
3360.2863629598
 20
8528.6013044488
 30
0.0
 40
5.068488408976171
100
AcDbArc
 50
142.7518488957
 51
146.6982969022
  0
ARC
  5
B5
330
1F
100
AcDbEntity
  8
0
  6
Continuous
 62
     7
370
    15
100
AcDbCircle
 10
3360.278761941
 20
8528.6063004473
 30
0.0
 40
5.05939250424864
100
AcDbArc
 50
146.6983228259
 51
150.6495003658
  0
ARC
  5
B6
330
1F
100
AcDbEntity
  8
0
  6
Continuous
 62
     7
370
    15
100
AcDbCircle
 10
3360.2713948434
 20
8528.6104466737
 30
0.0
 40
5.050938788459538
100
AcDbArc
 50
150.6495345938
 51
154.6051204784
  0
ARC
  5
B7
330
1F
100
AcDbEntity
  8
0
  6
Continuous
 62
     7
370
    15
100
AcDbCircle
 10
3360.2644823956
 20
8528.6137322729
 30
0.0
 40
5.043285221728521
100
AcDbArc
 50
154.6051623997
 51
158.5647499978
  0
ARC
  5
B8
330
1F
100
AcDbEntity
  8
0
  6
Continuous
 62
     7
370
    15
100
AcDbCircle
 10
3360.2582374928
 20
8528.6161886691
 30
0.0
 40
5.036574582813014
100
AcDbArc
 50
158.5647988381
 51
162.5279034726
  0
ARC
  5
B9
330
1F
100
AcDbEntity
  8
0
  6
Continuous
 62
     7
370
    15
100
AcDbCircle
 10
3360.2528565707
 20
8528.6178874344
 30
0.0
 40
5.030931879371064
100
AcDbArc
 50
162.5279583075
 51
166.494026326
  0
ARC
  5
BA
330
1F
100
AcDbEntity
  8
0
  6
Continuous
 62
     7
370
    15
100
AcDbCircle
 10
3360.2485116197
 20
8528.6189364369
 30
0.0
 40
5.026462094325307
100
AcDbArc
 50
166.4940860987
 51
170.4625054541
  0
ARC
  5
BB
330
1F
100
AcDbEntity
  8
0
  6
Continuous
 62
     7
370
    15
100
AcDbCircle
 10
3321.993353052
 20
8535.0462545169
 30
0.0
 40
33.76487166390704
100
AcDbArc
 50
349.5357922002
 51
350.4627366213
  0
ARC
  5
BC
330
1F
100
AcDbEntity
  8
0
  6
Continuous
 62
     7
370
    15
100
AcDbCircle
 10
3321.9879256631
 20
8535.047257397
 30
0.0
 40
33.77039093189547
100
AcDbArc
 50
348.6089479651
 51
349.5357914002
  0
ARC
  5
BD
330
1F
100
AcDbEntity
  8
0
  6
Continuous
 62
     7
370
    15
100
AcDbCircle
 10
3321.9820593948
 20
8535.0484397655
 30
0.0
 40
33.77637516935645
100
AcDbArc
 50
347.682213219
 51
348.6089471757
  0
ARC
  5
BE
330
1F
100
AcDbEntity
  8
0
  6
Continuous
 62
     7
370
    15
100
AcDbCircle
 10
3321.9757646825
 20
8535.0498147513
 30
0.0
 40
33.78281830437998
100
AcDbArc
 50
346.755596322
 51
347.6822124411
  0
ARC
  5
BF
330
1F
100
AcDbEntity
  8
0
  6
Continuous
 62
     7
370
    15
100
AcDbCircle
 10
3321.9690527009
 20
8535.0513949851
 30
0.0
 40
33.78971379828059
100
AcDbArc
 50
345.8291055065
 51
346.7555955565
  0
ARC
  5
C0
330
1F
100
AcDbEntity
  8
0
  6
Continuous
 62
     7
370
    15
100
AcDbCircle
 10
3321.9619353392
 20
8535.0531925656
 30
0.0
 40
33.79705465191275
100
AcDbArc
 50
344.9027488688
 51
345.8291047542
  0
ARC
  5
C1
330
1F
100
AcDbEntity
  8
0
  6
Continuous
 62
     7
370
    15
100
AcDbCircle
 10
3321.954425175
 20
8535.0552190281
 30
0.0
 40
33.80483341251212
100
AcDbArc
 50
343.9765343599
 51
344.9027481305
  0
ARC
  5
C2
330
1F
100
AcDbEntity
  8
0
  6
Continuous
 62
     7
370
    15
100
AcDbCircle
 10
3321.9465353488
 20
8535.0574849775
 30
0.0
 40
33.81304218125272
100
AcDbArc
 50
343.0504703444
 51
343.9765342282
  0
ARC
  5
C3
330
1F
100
AcDbEntity
  8
0
  6
Continuous
 62
     7
370
    15
100
AcDbCircle
 10
3359.1030176759
 20
8523.7333696832
 30
0.0
 40
5.030744530685867
100
AcDbArc
 50
163.0502687715
 51
166.2524405555
  0
ARC
  5
C4
330
1F
100
AcDbEntity
  8
0
  6
Continuous
 62
     7
370
    15
100
AcDbCircle
 10
3359.0994533905
 20
8523.7342445267
 30
0.0
 40
5.027074452431725
100
AcDbArc
 50
166.2524718796
 51
169.4562021989
  0
ARC
  5
C5
330
1F
100
AcDbEntity
  8
0
  6
Continuous
 62
     7
370
    15
100
AcDbCircle
 10
3359.0966438493
 20
8523.7347704103
 30
0.0
 40
5.02421611960219
100
AcDbArc
 50
169.4562352068
 51
172.66118066
  0
ARC
  5
C6
330
1F
100
AcDbEntity
  8
0
  6
Continuous
 62
     7
370
    15
100
AcDbCircle
 10
3359.0946487537
 20
8523.7350303905
 30
0.0
 40
5.022204158536507
100
AcDbArc
 50
172.6612149279
 51
175.8670163969
  0
ARC
  5
C7
330
1F
100
AcDbEntity
  8
0
  6
Continuous
 62
     7
370
    15
100
AcDbCircle
 10
3359.0935107149
 20
8523.7351157074
 30
0.0
 40
5.021062930394779
100
AcDbArc
 50
175.8670514825
 51
179.0733387562
  0
ARC
  5
C8
330
1F
100
AcDbEntity
  8
0
  6
Continuous
 62
     7
370
    15
100
AcDbCircle
 10
3359.0932541173
 20
8523.7351229645
 30
0.0
 40
5.020806248908965
100
AcDbArc
 50
179.0733742048
 51
182.2797707697
  0
ARC
  5
C9
330
1F
100
AcDbEntity
  8
0
  6
Continuous
 62
     7
370
    15
100
AcDbCircle
 10
3359.0938844663
 20
8523.7351511597
 30
0.0
 40
5.021437220592528
100
AcDbArc
 50
182.2798061211
 51
185.4859340444
  0
ARC
  5
CA
330
1F
100
AcDbEntity
  8
0
  6
Continuous
 62
     7
370
    15
100
AcDbCircle
 10
3359.0953882421
 20
8523.7352986487
 30
0.0
 40
5.022948208779422
100
AcDbArc
 50
185.4859688399
 51
188.6914537663
  0
LINE
  5
CB
330
1F
100
AcDbEntity
  8
0
  6
Continuous
 62
     7
370
    15
100
AcDbLine
 10
3354.1301212822
 20
8522.9762639373
 30
0.0
 11
3354.4835358475
 21
8520.6643528526
 31
0.0
  0
ARC
  5
CC
330
1F
100
AcDbEntity
  8
0
  6
Continuous
 62
     7
370
    15
100
AcDbCircle
 10
3359.4510142348
 20
8521.4237260079
 30
0.0
 40
5.025185262838337
100
AcDbArc
 50
188.6914602502
 51
191.5899695222
  0
ARC
  5
CD
330
1F
100
AcDbEntity
  8
0
  6
Continuous
 62
     7
370
    15
100
AcDbCircle
 10
3359.4537855072
 20
8521.4242965177
 30
0.0
 40
5.02801464927798
100
AcDbArc
 50
191.5899935768
 51
194.4874152572
  0
ARC
  5
CE
330
1F
100
AcDbEntity
  8
0
  6
Continuous
 62
     7
370
    15
100
AcDbCircle
 10
3359.4571585096
 20
8521.4251701176
 30
0.0
 40
5.031498945212895
100
AcDbArc
 50
194.4874381083
 51
197.3835218565
  0
ARC
  5
CF
330
1F
100
AcDbEntity
  8
0
  6
Continuous
 62
     7
370
    15
100
AcDbCircle
 10
3359.4610751112
 20
8521.426398241
 30
0.0
 40
5.035603583038201
100
AcDbArc
 50
197.3835432665
 51
200.2780528579
  0
ARC
  5
D0
330
1F
100
AcDbEntity
  8
0
  6
Continuous
 62
     7
370
    15
100
AcDbCircle
 10
3359.4654684153
 20
8521.4280233128
 30
0.0
 40
5.040287809377789
100
AcDbArc
 50
200.2780726065
 51
203.1707883757
  0
ARC
  5
D1
330
1F
100
AcDbEntity
  8
0
  6
Continuous
 62
     7
370
    15
100
AcDbCircle
 10
3359.470264216
 20
8521.4300776153
 30
0.0
 40
5.045505074985918
100
AcDbArc
 50
203.1708062624
 51
206.0615273506
  0
ARC
  5
D2
330
1F
100
AcDbEntity
  8
0
  6
Continuous
 62
     7
370
    15
100
AcDbCircle
 10
3359.4753826109
 20
8521.4325823858
 30
0.0
 40
5.051203481708937
100
AcDbArc
 50
206.0615431963
 51
208.9500895765
  0
ARC
  5
D3
330
1F
100
AcDbEntity
  8
0
  6
Continuous
 62
     7
370
    15
100
AcDbCircle
 10
3359.4807397341
 20
8521.435547167
 30
0.0
 40
5.057326283023082
100
AcDbArc
 50
208.9501032259
 51
211.8363174874
  0
LINE
  5
D4
330
1F
100
AcDbEntity
  8
0
  6
Continuous
 62
     7
370
    15
100
AcDbLine
 10
3355.1842452575
 20
8518.7678357342
 30
0.0
 11
3357.9645430286
 21
8514.2899613583
 31
0.0
  0
ARC
  5
D5
330
1F
100
AcDbEntity
  8
0
  6
Continuous
 62
     7
370
    15
100
AcDbCircle
 10
3362.2671546864
 20
8516.9614873153
 30
0.0
 40
5.064535099875192
100
AcDbArc
 50
211.8364806676
 51
215.3430375058
  0
ARC
  5
D6
330
1F
100
AcDbEntity
  8
0
  6
Continuous
 62
     7
370
    15
100
AcDbCircle
 10
3362.2739373804
 20
8516.9662990139
 30
0.0
 40
5.0728511915069
100
AcDbArc
 50
215.3430525285
 51
218.8457754475
  0
ARC
  5
D7
330
1F
100
AcDbEntity
  8
0
  6
Continuous
 62
     7
370
    15
100
AcDbCircle
 10
3362.2806534707
 20
8516.9717088102
 30
0.0
 40
5.081475097980235
100
AcDbArc
 50
218.8457849411
 51
222.3445430803
  0
ARC
  5
D8
330
1F
100
AcDbEntity
  8
0
  6
Continuous
 62
     7
370
    15
100
AcDbCircle
 10
3362.2871603704
 20
8516.9776393508
 30
0.0
 40
5.090279134339621
100
AcDbArc
 50
222.3445469397
 51
225.8392690388
  0
ARC
  5
D9
330
1F
100
AcDbEntity
  8
0
  6
Continuous
 62
     7
370
    15
100
AcDbCircle
 10
3362.2933285475
 20
8516.9839907015
 30
0.0
 40
5.099132724804582
100
AcDbArc
 50
225.8392672452
 51
229.3299423044
  0
ARC
  5
DA
330
1F
100
AcDbEntity
  8
0
  6
Continuous
 62
     7
370
    15
100
AcDbCircle
 10
3362.2990455212
 20
8516.990643317
 30
0.0
 40
5.107904331289701
100
AcDbArc
 50
229.3299349233
 51
232.8166119522
  0
ARC
  5
DB
330
1F
100
AcDbEntity
  8
0
  6
Continuous
 62
     7
370
    15
100
AcDbCircle
 10
3362.3042192678
 20
8516.997461687
 30
0.0
 40
5.116463409674672
100
AcDbArc
 50
232.8165991302
 51
236.2993860138
  0
ARC
  5
DC
330
1F
100
AcDbEntity
  8
0
  6
Continuous
 62
     7
370
    15
100
AcDbCircle
 10
3362.3087809247
 20
8517.0042985362
 30
0.0
 40
5.124682364471804
100
AcDbArc
 50
236.2993679741
 51
239.778429496
  0
LINE
  5
DD
330
1F
100
AcDbEntity
  8
0
  6
Continuous
 62
     7
370
    15
100
AcDbLine
 10
3359.7292959307
 20
8512.5761350373
 30
0.0
 11
3363.0821228576
 21
8510.6230184192
 31
0.0
  0
ARC
  5
DE
330
1F
100
AcDbEntity
  8
0
  6
Continuous
 62
     7
370
    15
100
AcDbCircle
 10
3365.6659304466
 20
8515.05863755
 30
0.0
 40
5.133301026818271
100
AcDbArc
 50
239.7786243069
 51
244.0644577878
  0
ARC
  5
DF
330
1F
100
AcDbEntity
  8
0
  6
Continuous
 62
     7
370
    15
100
AcDbCircle
 10
3365.6697228752
 20
8515.0664244558
 30
0.0
 40
5.141962342711246
100
AcDbArc
 50
244.0644042869
 51
248.3454224749
  0
ARC
  5
E0
330
1F
100
AcDbEntity
  8
0
  6
Continuous
 62
     7
370
    15
100
AcDbCircle
 10
3365.6725195422
 20
8515.0734531458
 30
0.0
 40
5.149526983994126
100
AcDbArc
 50
248.3453597651
 51
252.6221834087
  0
ARC
  5
E1
330
1F
100
AcDbEntity
  8
0
  6
Continuous
 62
     7
370
    15
100
AcDbCircle
 10
3365.6744058689
 20
8515.0794593549
 30
0.0
 40
5.155822437656692
100
AcDbArc
 50
252.6221128987
 51
256.8954535774
  0
LINE
  5
E2
330
1F
100
AcDbEntity
  8
0
  6
Continuous
 62
     7
370
    15
100
AcDbLine
 10
3367.9016852834
 20
8509.2672651389
 30
0.0
 11
3364.505433346
 21
8510.0579049194
 31
0.0
  0
ARC
  5
E3
330
1F
100
AcDbEntity
  8
0
  6
Continuous
 62
     7
370
    15
100
AcDbCircle
 10
3369.0716732952
 20
8514.2931048749
 30
0.0
 40
5.160226711537225
100
AcDbArc
 50
256.8952595437
 51
260.1728944986
  0
ARC
  5
E4
330
1F
100
AcDbEntity
  8
0
  6
Continuous
 62
     7
370
    15
100
AcDbCircle
 10
3369.0721641509
 20
8514.2959194341
 30
0.0
 40
5.163083750577421
100
AcDbArc
 50
260.1728581361
 51
263.4492836738
  0
ARC
  5
E5
330
1F
100
AcDbEntity
  8
0
  6
Continuous
 62
     7
370
    15
100
AcDbCircle
 10
3369.0723872808
 20
8514.2978328476
 30
0.0
 40
5.165010127100151
100
AcDbArc
 50
263.4492461142
 51
266.7248568243
  0
ARC
  5
E6
330
1F
100
AcDbEntity
  8
0
  6
Continuous
 62
     7
370
    15
100
AcDbCircle
 10
3369.0724461284
 20
8514.2988007967
 30
0.0
 40
5.165979857235194
100
AcDbArc
 50
266.7248185415
 51
273.2752199203
  0
ARC
  5
E7
330
1F
100
AcDbEntity
  8
0
  6
Continuous
 62
     7
370
    15
100
AcDbCircle
 10
3369.0725084382
 20
8514.2978330457
 30
0.0
 40
5.165010127096537
100
AcDbArc
 50
273.2751431757
 51
276.5507538858
  0
ARC
  5
E8
330
1F
100
AcDbEntity
  8
0
  6
Continuous
 62
     7
370
    15
100
AcDbCircle
 10
3369.0727315681
 20
8514.2959196323
 30
0.0
 40
5.163083750573755
100
AcDbArc
 50
276.5507163262
 51
279.8271418639
  0
ARC
  5
E9
330
1F
100
AcDbEntity
  8
0
  6
Continuous
 62
     7
370
    15
100
AcDbCircle
 10
3369.0732224238
 20
8514.2931050731
 30
0.0
 40
5.160226711535453
100
AcDbArc
 50
279.8271055014
 51
283.1047404563
  0
LINE
  5
EA
330
1F
100
AcDbEntity
  8
0
  6
Continuous
 62
     7
370
    15
100
AcDbLine
 10
3370.2432103305
 20
8509.2672651389
 30
0.0
 11
3373.6394623843
 21
8510.0579049194
 31
0.0
  0
ARC
  5
EB
330
1F
100
AcDbEntity
  8
0
  6
Continuous
 62
     7
370
    15
100
AcDbCircle
 10
3372.47048985
 20
8515.0794595531
 30
0.0
 40
5.155822437658564
100
AcDbArc
 50
283.1045464226
 51
287.3778871013
  0
ARC
  5
EC
330
1F
100
AcDbEntity
  8
0
  6
Continuous
 62
     7
370
    15
100
AcDbCircle
 10
3372.4723761768
 20
8515.0734533439
 30
0.0
 40
5.14952698399399
100
AcDbArc
 50
287.3778165913
 51
291.6546402349
  0
ARC
  5
ED
330
1F
100
AcDbEntity
  8
0
  6
Continuous
 62
     7
370
    15
100
AcDbCircle
 10
3372.4751728438
 20
8515.0664246539
 30
0.0
 40
5.141962342709388
100
AcDbArc
 50
291.6545775251
 51
295.9355957131
  0
ARC
  5
EE
330
1F
100
AcDbEntity
  8
0
  6
Continuous
 62
     7
370
    15
100
AcDbCircle
 10
3372.4789652724
 20
8515.0586377481
 30
0.0
 40
5.133301026820046
100
AcDbArc
 50
295.9355422122
 51
300.2213756931
  0
LINE
  5
EF
330
1F
100
AcDbEntity
  8
0
  6
Continuous
 62
     7
370
    15
100
AcDbLine
 10
3378.4155997996
 20
8512.5761359686
 30
0.0
 11
3375.0627728728
 21
8510.6230184192
 31
0.0
  0
ARC
  5
F0
330
1F
100
AcDbEntity
  8
0
  6
Continuous
 62
     7
370
    15
100
AcDbCircle
 10
3375.8361147943
 20
8517.0042987343
 30
0.0
 40
5.124682364471552
100
AcDbArc
 50
300.221570504
 51
303.7006320259
  0
ARC
  5
F1
330
1F
100
AcDbEntity
  8
0
  6
Continuous
 62
     7
370
    15
100
AcDbCircle
 10
3375.8406764512
 20
8516.9974618852
 30
0.0
 40
5.116463409681734
100
AcDbArc
 50
303.7006139863
 51
307.1834008698
  0
ARC
  5
F2
330
1F
100
AcDbEntity
  8
0
  6
Continuous
 62
     7
370
    15
100
AcDbCircle
 10
3375.8458501978
 20
8516.9906435151
 30
0.0
 40
5.107904331287433
100
AcDbArc
 50
307.1833880478
 51
310.6700650767
  0
ARC
  5
F3
330
1F
100
AcDbEntity
  8
0
  6
Continuous
 62
     7
370
    15
100
AcDbCircle
 10
3375.8515671715
 20
8516.9839908996
 30
0.0
 40
5.099132724799121
100
AcDbArc
 50
310.6700576955
 51
314.1607327548
  0
ARC
  5
F4
330
1F
100
AcDbEntity
  8
0
  6
Continuous
 62
     7
370
    15
100
AcDbCircle
 10
3375.8577353486
 20
8516.9776395489
 30
0.0
 40
5.090279134337992
100
AcDbArc
 50
314.1607309611
 51
317.6554530603
  0
ARC
  5
F5
330
1F
100
AcDbEntity
  8
0
  6
Continuous
 62
     7
370
    15
100
AcDbCircle
 10
3375.8642422483
 20
8516.9717090083
 30
0.0
 40
5.081475097977712
100
AcDbArc
 50
317.6554569197
 51
321.1542150589
  0
ARC
  5
F6
330
1F
100
AcDbEntity
  8
0
  6
Continuous
 62
     7
370
    15
100
AcDbCircle
 10
3375.8709583385
 20
8516.966299212
 30
0.0
 40
5.072851191513752
100
AcDbArc
 50
321.1542245525
 51
324.6569474715
  0
ARC
  5
F7
330
1F
100
AcDbEntity
  8
0
  6
Continuous
 62
     7
370
    15
100
AcDbCircle
 10
3375.8777410326
 20
8516.9614875134
 30
0.0
 40
5.064535099881858
100
AcDbArc
 50
324.6569624941
 51
328.1635193324
  0
LINE
  5
F8
330
1F
100
AcDbEntity
  8
0
  6
Continuous
 62
     7
370
    15
100
AcDbLine
 10
3382.9606504728
 20
8518.7678361999
 30
0.0
 11
3380.1803527017
 21
8514.2899613583
 31
0.0
  0
ARC
  5
F9
330
1F
100
AcDbEntity
  8
0
  6
Continuous
 62
     7
370
    15
100
AcDbCircle
 10
3378.6641559849
 20
8521.4355473652
 30
0.0
 40
5.057326283035806
100
AcDbArc
 50
328.1636825126
 51
331.0498967741
  0
ARC
  5
FA
330
1F
100
AcDbEntity
  8
0
  6
Continuous
 62
     7
370
    15
100
AcDbCircle
 10
3378.6695131081
 20
8521.4325825839
 30
0.0
 40
5.051203481712188
100
AcDbArc
 50
331.0499104235
 51
333.9384568037
  0
ARC
  5
FB
330
1F
100
AcDbEntity
  8
0
  6
Continuous
 62
     7
370
    15
100
AcDbCircle
 10
3378.674631503
 20
8521.4300778134
 30
0.0
 40
5.045505074989977
100
AcDbArc
 50
333.9384726494
 51
336.8291937376
  0
ARC
  5
FC
330
1F
100
AcDbEntity
  8
0
  6
Continuous
 62
     7
370
    15
100
AcDbCircle
 10
3378.6794273036
 20
8521.4280235109
 30
0.0
 40
5.040287809378922
100
AcDbArc
 50
336.8292116242
 51
339.7219273935
  0
ARC
  5
FD
330
1F
100
AcDbEntity
  8
0
  6
Continuous
 62
     7
370
    15
100
AcDbCircle
 10
3378.6838206078
 20
8521.4263984391
 30
0.0
 40
5.035603583038248
100
AcDbArc
 50
339.7219471421
 51
342.6164567335
  0
ARC
  5
FE
330
1F
100
AcDbEntity
  8
0
  6
Continuous
 62
     7
370
    15
100
AcDbCircle
 10
3378.6877372094
 20
8521.4251703158
 30
0.0
 40
5.031498945212895
100
AcDbArc
 50
342.6164781435
 51
345.5125618917
  0
ARC
  5
FF
330
1F
100
AcDbEntity
  8
0
  6
Continuous
 62
     7
370
    15
100
AcDbCircle
 10
3378.6911102118
 20
8521.4242967158
 30
0.0
 40
5.0280146492793
100
AcDbArc
 50
345.5125847428
 51
348.4100064233
  0
ARC
  5
100
330
1F
100
AcDbEntity
  8
0
  6
Continuous
 62
     7
370
    15
100
AcDbCircle
 10
3378.6938814842
 20
8521.423726206
 30
0.0
 40
5.02518526284415
100
AcDbArc
 50
348.4100304779
 51
351.3085397498
  0
LINE
  5
101
330
1F
100
AcDbEntity
  8
0
  6
Continuous
 62
     7
370
    15
100
AcDbLine
 10
3384.0147744481
 20
8522.9762641702
 30
0.0
 11
3383.6613598828
 21
8520.6643528526
 31
0.0
  0
ARC
  5
102
330
1F
100
AcDbEntity
  8
0
  6
Continuous
 62
     7
370
    15
100
AcDbCircle
 10
3379.0495074769
 20
8523.7352988469
 30
0.0
 40
5.022948208820528
100
AcDbArc
 50
351.3085462337
 51
354.5140311022
  0
ARC
  5
103
330
1F
100
AcDbEntity
  8
0
  6
Continuous
 62
     7
370
    15
100
AcDbCircle
 10
3379.0510112527
 20
8523.7351513579
 30
0.0
 40
5.021437220610338
100
AcDbArc
 50
354.5140658977
 51
357.7201938534
  0
ARC
  5
104
330
1F
100
AcDbEntity
  8
0
  6
Continuous
 62
     7
370
    15
100
AcDbCircle
 10
3379.0516416017
 20
8523.7351231627
 30
0.0
 40
5.020806248907348
100
AcDbArc
 50
357.7202292048
 51
0.926625802
  0
ARC
  5
105
330
1F
100
AcDbEntity
  8
0
  6
Continuous
 62
     7
370
    15
100
AcDbCircle
 10
3379.051385004
 20
8523.7351159055
 30
0.0
 40
5.021062930401698
100
AcDbArc
 50
0.9266612506
 51
4.1329485567
  0
ARC
  5
106
330
1F
100
AcDbEntity
  8
0
  6
Continuous
 62
     7
370
    15
100
AcDbCircle
 10
3379.0502469653
 20
8523.7350305886
 30
0.0
 40
5.022204158569674
100
AcDbArc
 50
4.1329836424
 51
7.3387851436
  0
ARC
  5
107
330
1F
100
AcDbEntity
  8
0
  6
Continuous
 62
     7
370
    15
100
AcDbCircle
 10
3379.0482518696
 20
8523.7347706084
 30
0.0
 40
5.024216119668219
100
AcDbArc
 50
7.3388194116
 51
10.5437648971
  0
ARC
  5
108
330
1F
100
AcDbEntity
  8
0
  6
Continuous
 62
     7
370
    15
100
AcDbCircle
 10
3379.0454423284
 20
8523.7342447248
 30
0.0
 40
5.027074452553536
100
AcDbArc
 50
10.5437979049
 51
13.7475282565
  0
ARC
  5
109
330
1F
100
AcDbEntity
  8
0
  6
Continuous
 62
     7
370
    15
100
AcDbCircle
 10
3379.0418780429
 20
8523.7333698812
 30
0.0
 40
5.030744530877994
100
AcDbArc
 50
13.7475595806
 51
16.9497313969
  0
ARC
  5
10A
330
1F
100
AcDbEntity
  8
0
  6
Continuous
 62
     7
370
    15
100
AcDbCircle
 10
3416.19836037
 20
8535.0574851756
 30
0.0
 40
33.81304218106558
100
AcDbArc
 50
196.0234657718
 51
196.9495296306
  0
ARC
  5
10B
330
1F
100
AcDbEntity
  8
0
  6
Continuous
 62
     7
370
    15
100
AcDbCircle
 10
3416.1904705442
 20
8535.0552192262
 30
0.0
 40
33.80483341274753
100
AcDbArc
 50
195.0972518695
 51
196.0234656401
  0
ARC
  5
10C
330
1F
100
AcDbEntity
  8
0
  6
Continuous
 62
     7
370
    15
100
AcDbCircle
 10
3416.1829603797
 20
8535.0531927637
 30
0.0
 40
33.79705465190998
100
AcDbArc
 50
194.1708952458
 51
195.0972511312
  0
ARC
  5
10D
330
1F
100
AcDbEntity
  8
0
  6
Continuous
 62
     7
370
    15
100
AcDbCircle
 10
3416.1758430179
 20
8535.0513951832
 30
0.0
 40
33.78971379806972
100
AcDbArc
 50
193.2444044435
 51
194.1708944935
  0
ARC
  5
10E
330
1F
100
AcDbEntity
  8
0
  6
Continuous
 62
     7
370
    15
100
AcDbCircle
 10
3416.1691310367
 20
8535.0498149495
 30
0.0
 40
33.78281830460397
100
AcDbArc
 50
192.3177875589
 51
193.244403678
  0
ARC
  5
10F
330
1F
100
AcDbEntity
  8
0
  6
Continuous
 62
     7
370
    15
100
AcDbCircle
 10
3416.1628363242
 20
8535.0484399636
 30
0.0
 40
33.77637516935859
100
AcDbArc
 50
191.3910528243
 51
192.317786781
  0
ARC
  5
110
330
1F
100
AcDbEntity
  8
0
  6
Continuous
 62
     7
370
    15
100
AcDbCircle
 10
3416.1569700563
 20
8535.0472575952
 30
0.0
 40
33.77039093222902
100
AcDbArc
 50
190.4642085998
 51
191.3910520349
  0
ARC
  5
111
330
1F
100
AcDbEntity
  8
0
  6
Continuous
 62
     7
370
    15
100
AcDbCircle
 10
3416.151542667
 20
8535.046254715
 30
0.0
 40
33.76487166393336
100
AcDbArc
 50
189.5372633787
 51
190.4642077998
  0
ARC
  5
112
330
1F
100
AcDbEntity
  8
0
  6
Continuous
 62
     7
370
    15
100
AcDbCircle
 10
3377.8963840993
 20
8528.618936635
 30
0.0
 40
5.026462094327696
100
AcDbArc
 50
9.5374945459
 51
13.5059139013
  0
ARC
  5
113
330
1F
100
AcDbEntity
  8
0
  6
Continuous
 62
     7
370
    15
100
AcDbCircle
 10
3377.8920391482
 20
8528.6178876325
 30
0.0
 40
5.030931879372832
100
AcDbArc
 50
13.505973674
 51
17.4720416925
  0
ARC
  5
114
330
1F
100
AcDbEntity
  8
0
  6
Continuous
 62
     7
370
    15
100
AcDbCircle
 10
3377.8866582262
 20
8528.6161888672
 30
0.0
 40
5.036574582816181
100
AcDbArc
 50
17.4720965274
 51
21.4352011619
  0
ARC
  5
115
330
1F
100
AcDbEntity
  8
0
  6
Continuous
 62
     7
370
    15
100
AcDbCircle
 10
3377.8804133234
 20
8528.613732471
 30
0.0
 40
5.043285221730174
100
AcDbArc
 50
21.4352500022
 51
25.3948376003
  0
ARC
  5
116
330
1F
100
AcDbEntity
  8
0
  6
Continuous
 62
     7
370
    15
100
AcDbCircle
 10
3377.8735008756
 20
8528.6104468718
 30
0.0
 40
5.050938788463997
100
AcDbArc
 50
25.3948795216
 51
29.3504654062
  0
ARC
  5
117
330
1F
100
AcDbEntity
  8
0
  6
Continuous
 62
     7
370
    15
100
AcDbCircle
 10
3377.866133778
 20
8528.6063006454
 30
0.0
 40
5.059392504248462
100
AcDbArc
 50
29.3504996342
 51
33.3016771741
  0
ARC
  5
118
330
1F
100
AcDbEntity
  8
0
  6
Continuous
 62
     7
370
    15
100
AcDbCircle
 10
3377.8585327592
 20
8528.601304647
 30
0.0
 40
5.068488408977258
100
AcDbArc
 50
33.3017030978
 51
37.2481511043
  0
ARC
  5
119
330
1F
100
AcDbEntity
  8
0
  6
Continuous
 62
     7
370
    15
100
AcDbCircle
 10
3377.8509174767
 20
8528.5955123266
 30
0.0
 40
5.078056288130543
100
AcDbArc
 50
37.2481682848
 51
41.1740578102
  0
ARC
  5
11A
330
1F
100
AcDbEntity
  8
0
  6
Continuous
 62
     7
370
    15
100
AcDbCircle
 10
3344.7985346249
 20
8499.6715444444
 30
0.0
 40
48.99907536366984
100
AcDbArc
 50
41.1874522418
 51
42.2310982155
  0
ARC
  5
11B
330
1F
100
AcDbEntity
  8
0
  6
Continuous
 62
     7
370
    15
100
AcDbCircle
 10
3344.7797799795
 20
8499.6545200884
 30
0.0
 40
49.02440450543004
100
AcDbArc
 50
42.2310983229
 51
43.2743847845
  0
ARC
  5
11C
330
1F
100
AcDbEntity
  8
0
  6
Continuous
 62
     7
370
    15
100
AcDbCircle
 10
3344.7612759431
 20
8499.6370983054
 30
0.0
 40
49.04981942001547
100
AcDbArc
 50
43.274384847
 51
44.3173108901
  0
ARC
  5
11D
330
1F
100
AcDbEntity
  8
0
  6
Continuous
 62
     7
370
    15
100
AcDbCircle
 10
3344.7430547304
 20
8499.6193061966
 30
0.0
 40
49.07528649144358
100
AcDbArc
 50
44.3173109078
 51
45.3598761048
  0
ARC
  5
11E
330
1F
100
AcDbEntity
  8
0
  6
Continuous
 62
     7
370
    15
100
AcDbCircle
 10
3344.7251472717
 20
8499.6011723918
 30
0.0
 40
49.10077201589942
100
AcDbArc
 50
45.3598760777
 51
46.4020804795
  0
ARC
  5
11F
330
1F
100
AcDbEntity
  8
0
  6
Continuous
 62
     7
370
    15
100
AcDbCircle
 10
3344.7075831265
 20
8499.5827269706
 30
0.0
 40
49.12624224864818
100
AcDbArc
 50
46.4020804077
 51
47.4439245425
  0
ARC
  5
120
330
1F
100
AcDbEntity
  8
0
  6
Continuous
 62
     7
370
    15
100
AcDbCircle
 10
3344.6903904048
 20
8499.5640013817
 30
0.0
 40
49.15166344765839
100
AcDbArc
 50
47.4439244261
 51
48.4854092977
  0
ARC
  5
121
330
1F
100
AcDbEntity
  8
0
  6
Continuous
 62
     7
370
    15
100
AcDbCircle
 10
3344.673595691
 20
8499.5450283569
 30
0.0
 40
49.17700191808954
100
AcDbArc
 50
48.4854091371
 51
49.5265365287
  0
ARC
  5
122
330
1F
100
AcDbEntity
  8
0
  6
Continuous
 62
     7
370
    15
100
AcDbCircle
 10
3373.2782247907
 20
8533.0681035914
 30
0.0
 40
5.108630277048062
100
AcDbArc
 50
49.5270421544
 51
53.2032866589
  0
ARC
  5
123
330
1F
100
AcDbEntity
  8
0
  6
Continuous
 62
     7
370
    15
100
AcDbCircle
 10
3373.2728381906
 20
8533.0609046582
 30
0.0
 40
5.117621389280353
100
AcDbArc
 50
53.2032709332
 51
56.8752075912
  0
ARC
  5
124
330
1F
100
AcDbEntity
  8
0
  6
Continuous
 62
     7
370
    15
100
AcDbCircle
 10
3373.2681403443
 20
8533.0537086116
 30
0.0
 40
5.126215156863438
100
AcDbArc
 50
56.875185461
 51
60.5430164247
  0
ARC
  5
125
330
1F
100
AcDbEntity
  8
0
  6
Continuous
 62
     7
370
    15
100
AcDbCircle
 10
3373.2641775683
 20
8533.0466972696
 30
0.0
 40
5.134268883008724
100
AcDbArc
 50
60.5429882889
 51
64.2069819652
  0
ARC
  5
126
330
1F
100
AcDbEntity
  8
0
  6
Continuous
 62
     7
370
    15
100
AcDbCircle
 10
3373.2609637659
 20
8533.0400540727
 30
0.0
 40
5.141648624324702
100
AcDbArc
 50
64.2069483115
 51
67.8674346266
  0
ARC
  5
127
330
1F
100
AcDbEntity
  8
0
  6
Continuous
 62
     7
370
    15
100
AcDbCircle
 10
3373.2584804619
 20
8533.0339575974
 30
0.0
 40
5.148231465495083
100
AcDbArc
 50
67.8673960217
 51
71.524760791
  0
ARC
  5
128
330
1F
100
AcDbEntity
  8
0
  6
Continuous
 62
     7
370
    15
100
AcDbCircle
 10
3373.2566780567
 20
8533.0285752129
 30
0.0
 40
5.153907618451383
100
AcDbArc
 50
71.5247178707
 51
75.1793963776
  0
ARC
  5
129
330
1F
100
AcDbEntity
  8
0
  6
Continuous
 62
     7
370
    15
100
AcDbCircle
 10
3373.2554782514
 20
8533.0240571165
 30
0.0
 40
5.158582306679683
100
AcDbArc
 50
75.1793498365
 51
78.8318197285
  0
LINE
  5
12A
330
1F
100
AcDbEntity
  8
0
  6
Continuous
 62
     7
370
    15
100
AcDbLine
 10
3372.5834226784
 20
8538.4149040783
 30
0.0
 11
3374.2546414574
 21
8538.0849504599
 31
0.0
  0
ARC
  5
12B
330
1F
100
AcDbEntity
  8
0
  6
Continuous
 62
     7
370
    15
100
AcDbCircle
 10
3373.5828335253
 20
8543.476958659
 30
0.0
 40
5.159769567539827
100
AcDbArc
 50
257.3196866104
 51
258.8316209041
  0
ARC
  5
12C
330
1F
100
AcDbEntity
  8
0
  6
Continuous
 62
     7
370
    15
100
AcDbCircle
 10
3373.5824648058
 20
8543.4753213032
 30
0.0
 40
5.158091208882945
100
AcDbArc
 50
255.8074274791
 51
257.3196900411
  0
LINE
  5
12D
330
1F
100
AcDbEntity
  8
0
  6
Continuous
 62
     7
370
    15
100
AcDbLine
 10
3370.3383595998
 20
8538.9752724895
 30
0.0
 11
3372.3177952775
 21
8538.4746698418
 31
0.0
  0
ARC
  5
12E
330
1F
100
AcDbEntity
  8
0
  6
Continuous
 62
     7
370
    15
100
AcDbCircle
 10
3369.0734281016
 20
8533.9735176874
 30
0.0
 40
5.159225098912968
100
AcDbArc
 50
75.8076126108
 51
79.3575458091
  0
ARC
  5
12F
330
1F
100
AcDbEntity
  8
0
  6
Continuous
 62
     7
370
    15
100
AcDbCircle
 10
3369.0728075353
 20
8533.970237556
 30
0.0
 40
5.162563413977802
100
AcDbArc
 50
79.3575001018
 51
82.905902538
  0
ARC
  5
130
330
1F
100
AcDbEntity
  8
0
  6
Continuous
 62
     7
370
    15
100
AcDbCircle
 10
3369.0725247578
 20
8533.968000035
 30
0.0
 40
5.164818728786491
100
AcDbArc
 50
82.9058550512
 51
86.4532242614
  0
ARC
  5
131
330
1F
100
AcDbEntity
  8
0
  6
Continuous
 62
     7
370
    15
100
AcDbCircle
 10
3369.0724500623
 20
8533.9668656988
 30
0.0
 40
5.165955513237145
100
AcDbArc
 50
86.4531756984
 51
93.5468731312
  0
ARC
  5
132
330
1F
100
AcDbEntity
  8
0
  6
Continuous
 62
     7
370
    15
100
AcDbCircle
 10
3369.0723709725
 20
8533.9679997627
 30
0.0
 40
5.1648187287917
100
AcDbArc
 50
93.5467757386
 51
97.0941449488
  0
ARC
  5
133
330
1F
100
AcDbEntity
  8
0
  6
Continuous
 62
     7
370
    15
100
AcDbCircle
 10
3369.072088195
 20
8533.9702372836
 30
0.0
 40
5.162563413974872
100
AcDbArc
 50
97.094097462
 51
100.6424998982
  0
ARC
  5
134
330
1F
100
AcDbEntity
  8
0
  6
Continuous
 62
     7
370
    15
100
AcDbCircle
 10
3393.3836197742
 20
8499.6370980455
 30
0.0
 40
49.04981940199314
100
AcDbArc
 50
135.6826898501
 51
136.7256158935
  0
LINE
  5
135
330
1F
100
AcDbEntity
  8
0
  6
Continuous
 62
     7
370
    15
100
AcDbLine
 10
11911.103183315
 20
8539.1328215355
 30
0.0
 11
8911.103183315
 21
8539.1328215355
 31
0.0
  0
LINE
  5
136
330
1F
100
AcDbEntity
  8
0
  6
Continuous
 62
     7
370
    15
100
AcDbLine
 10
8911.103183315
 20
8509.1328212747
 30
0.0
 11
11911.103183315
 21
8509.1328212747
 31
0.0
  0
LINE
  5
137
330
1F
100
AcDbEntity
  8
0
  6
Continuous
 62
     7
370
    15
100
AcDbLine
 10
11911.103183315
 20
8523.8163194608
 30
0.0
 11
8911.103183315
 21
8523.8163194608
 31
0.0
  0
LINE
  5
138
330
1F
100
AcDbEntity
  8
0
  6
Continuous
 62
     7
370
    15
100
AcDbLine
 10
11911.103183315
 20
8523.5354004416
 30
0.0
 11
8911.103183315
 21
8523.5354004416
 31
0.0
  0
LINE
  5
139
330
1F
100
AcDbEntity
  8
0
  6
Continuous
 62
     7
370
    15
100
AcDbLine
 10
8911.103183315
 20
8523.5354004416
 30
0.0
 11
8911.103183315
 21
8523.8163194608
 31
0.0
  0
LINE
  5
13A
330
1F
100
AcDbEntity
  8
0
  6
Continuous
 62
     7
370
    15
100
AcDbLine
 10
11911.103183315
 20
8523.5354004416
 30
0.0
 11
11911.103183315
 21
8523.8163194608
 31
0.0
  0
LINE
  5
13B
330
1F
100
AcDbEntity
  8
0
  6
Continuous
 62
     7
370
    15
100
AcDbLine
 10
11911.103183315
 20
8524.0969890419
 30
0.0
 11
8911.103183315
 21
8524.0969890419
 31
0.0
  0
LINE
  5
13C
330
1F
100
AcDbEntity
  8
0
  6
Continuous
 62
     7
370
    15
100
AcDbLine
 10
8911.103183315
 20
8523.8163194608
 30
0.0
 11
8911.103183315
 21
8524.0969890419
 31
0.0
  0
LINE
  5
13D
330
1F
100
AcDbEntity
  8
0
  6
Continuous
 62
     7
370
    15
100
AcDbLine
 10
11911.103183315
 20
8523.8163194608
 30
0.0
 11
11911.103183315
 21
8524.0969890419
 31
0.0
  0
LINE
  5
13E
330
1F
100
AcDbEntity
  8
0
  6
Continuous
 62
     7
370
    15
100
AcDbLine
 10
11911.103183315
 20
8523.2550949895
 30
0.0
 11
8911.103183315
 21
8523.2550949895
 31
0.0
  0
LINE
  5
13F
330
1F
100
AcDbEntity
  8
0
  6
Continuous
 62
     7
370
    15
100
AcDbLine
 10
8911.103183315
 20
8523.2550949895
 30
0.0
 11
8911.103183315
 21
8523.5354004416
 31
0.0
  0
LINE
  5
140
330
1F
100
AcDbEntity
  8
0
  6
Continuous
 62
     7
370
    15
100
AcDbLine
 10
11911.103183315
 20
8523.2550949895
 30
0.0
 11
11911.103183315
 21
8523.5354004416
 31
0.0
  0
LINE
  5
141
330
1F
100
AcDbEntity
  8
0
  6
Continuous
 62
     7
370
    15
100
AcDbLine
 10
11911.103183315
 20
8524.3765469658
 30
0.0
 11
8911.103183315
 21
8524.3765469658
 31
0.0
  0
LINE
  5
142
330
1F
100
AcDbEntity
  8
0
  6
Continuous
 62
     7
370
    15
100
AcDbLine
 10
8911.103183315
 20
8524.0969890419
 30
0.0
 11
8911.103183315
 21
8524.3765469658
 31
0.0
  0
LINE
  5
143
330
1F
100
AcDbEntity
  8
0
  6
Continuous
 62
     7
370
    15
100
AcDbLine
 10
11911.103183315
 20
8524.0969890419
 30
0.0
 11
11911.103183315
 21
8524.3765469658
 31
0.0
  0
LINE
  5
144
330
1F
100
AcDbEntity
  8
0
  6
Continuous
 62
     7
370
    15
100
AcDbLine
 10
11911.103183315
 20
8522.9762641702
 30
0.0
 11
8911.103183315
 21
8522.9762641702
 31
0.0
  0
LINE
  5
145
330
1F
100
AcDbEntity
  8
0
  6
Continuous
 62
     7
370
    15
100
AcDbLine
 10
8911.103183315
 20
8522.9762641702
 30
0.0
 11
8911.103183315
 21
8523.2550949895
 31
0.0
  0
LINE
  5
146
330
1F
100
AcDbEntity
  8
0
  6
Continuous
 62
     7
370
    15
100
AcDbLine
 10
11911.103183315
 20
8522.9762641702
 30
0.0
 11
11911.103183315
 21
8523.2550949895
 31
0.0
  0
LINE
  5
147
330
1F
100
AcDbEntity
  8
0
  6
Continuous
 62
     7
370
    15
100
AcDbLine
 10
11911.103183315
 20
8524.6541344549
 30
0.0
 11
8911.103183315
 21
8524.6541344549
 31
0.0
  0
LINE
  5
148
330
1F
100
AcDbEntity
  8
0
  6
Continuous
 62
     7
370
    15
100
AcDbLine
 10
8911.103183315
 20
8524.3765469658
 30
0.0
 11
8911.103183315
 21
8524.6541344549
 31
0.0
  0
LINE
  5
149
330
1F
100
AcDbEntity
  8
0
  6
Continuous
 62
     7
370
    15
100
AcDbLine
 10
11911.103183315
 20
8524.3765469658
 30
0.0
 11
11911.103183315
 21
8524.6541344549
 31
0.0
  0
LINE
  5
14A
330
1F
100
AcDbEntity
  8
0
  6
Continuous
 62
     7
370
    15
100
AcDbLine
 10
11911.103183315
 20
8520.6643528526
 30
0.0
 11
8911.103183315
 21
8520.6643528526
 31
0.0
  0
LINE
  5
14B
330
1F
100
AcDbEntity
  8
0
  6
Continuous
 62
     7
370
    15
100
AcDbLine
 10
8911.103183315
 20
8522.9762641702
 30
0.0
 11
8911.103183315
 21
8520.6643528526
 31
0.0
  0
LINE
  5
14C
330
1F
100
AcDbEntity
  8
0
  6
Continuous
 62
     7
370
    15
100
AcDbLine
 10
11911.103183315
 20
8522.9762641702
 30
0.0
 11
11911.103183315
 21
8520.6643528526
 31
0.0
  0
LINE
  5
14D
330
1F
100
AcDbEntity
  8
0
  6
Continuous
 62
     7
370
    15
100
AcDbLine
 10
11911.103183315
 20
8524.9288987706
 30
0.0
 11
8911.103183315
 21
8524.9288987706
 31
0.0
  0
LINE
  5
14E
330
1F
100
AcDbEntity
  8
0
  6
Continuous
 62
     7
370
    15
100
AcDbLine
 10
8911.103183315
 20
8524.6541344549
 30
0.0
 11
8911.103183315
 21
8524.9288987706
 31
0.0
  0
LINE
  5
14F
330
1F
100
AcDbEntity
  8
0
  6
Continuous
 62
     7
370
    15
100
AcDbLine
 10
11911.103183315
 20
8524.6541344549
 30
0.0
 11
11911.103183315
 21
8524.9288987706
 31
0.0
  0
LINE
  5
150
330
1F
100
AcDbEntity
  8
0
  6
Continuous
 62
     7
370
    15
100
AcDbLine
 10
11911.103183315
 20
8525.1999957708
 30
0.0
 11
8911.103183315
 21
8525.1999957708
 31
0.0
  0
LINE
  5
151
330
1F
100
AcDbEntity
  8
0
  6
Continuous
 62
     7
370
    15
100
AcDbLine
 10
8911.103183315
 20
8524.9288987706
 30
0.0
 11
8911.103183315
 21
8525.1999957708
 31
0.0
  0
LINE
  5
152
330
1F
100
AcDbEntity
  8
0
  6
Continuous
 62
     7
370
    15
100
AcDbLine
 10
11911.103183315
 20
8524.9288987706
 30
0.0
 11
11911.103183315
 21
8525.1999957708
 31
0.0
  0
LINE
  5
153
330
1F
100
AcDbEntity
  8
0
  6
Continuous
 62
     7
370
    15
100
AcDbLine
 10
11911.103183315
 20
8525.7240365481
 30
0.0
 11
8911.103183315
 21
8525.7240365481
 31
0.0
  0
LINE
  5
154
330
1F
100
AcDbEntity
  8
0
  6
Continuous
 62
     7
370
    15
100
AcDbLine
 10
8911.103183315
 20
8525.7240365481
 30
0.0
 11
8911.103183315
 21
8525.1999957708
 31
0.0
  0
LINE
  5
155
330
1F
100
AcDbEntity
  8
0
  6
Continuous
 62
     7
370
    15
100
AcDbLine
 10
11911.103183315
 20
8525.7240365481
 30
0.0
 11
11911.103183315
 21
8525.1999957708
 31
0.0
  0
LINE
  5
156
330
1F
100
AcDbEntity
  8
0
  6
Continuous
 62
     7
370
    15
100
AcDbLine
 10
11911.103183315
 20
8526.2504731526
 30
0.0
 11
8911.103183315
 21
8526.2504731526
 31
0.0
  0
LINE
  5
157
330
1F
100
AcDbEntity
  8
0
  6
Continuous
 62
     7
370
    15
100
AcDbLine
 10
8911.103183315
 20
8526.2504731526
 30
0.0
 11
8911.103183315
 21
8525.7240365481
 31
0.0
  0
LINE
  5
158
330
1F
100
AcDbEntity
  8
0
  6
Continuous
 62
     7
370
    15
100
AcDbLine
 10
11911.103183315
 20
8526.2504731526
 30
0.0
 11
11911.103183315
 21
8525.7240365481
 31
0.0
  0
LINE
  5
159
330
1F
100
AcDbEntity
  8
0
  6
Continuous
 62
     7
370
    15
100
AcDbLine
 10
11911.103183315
 20
8520.4141341837
 30
0.0
 11
8911.103183315
 21
8520.4141341837
 31
0.0
  0
LINE
  5
15A
330
1F
100
AcDbEntity
  8
0
  6
Continuous
 62
     7
370
    15
100
AcDbLine
 10
8911.103183315
 20
8520.4141341837
 30
0.0
 11
8911.103183315
 21
8520.6643528526
 31
0.0
  0
LINE
  5
15B
330
1F
100
AcDbEntity
  8
0
  6
Continuous
 62
     7
370
    15
100
AcDbLine
 10
11911.103183315
 20
8520.4141341837
 30
0.0
 11
11911.103183315
 21
8520.6643528526
 31
0.0
  0
LINE
  5
15C
330
1F
100
AcDbEntity
  8
0
  6
Continuous
 62
     7
370
    15
100
AcDbLine
 10
11911.103183315
 20
8520.1664517389
 30
0.0
 11
8911.103183315
 21
8520.1664517389
 31
0.0
  0
LINE
  5
15D
330
1F
100
AcDbEntity
  8
0
  6
Continuous
 62
     7
370
    15
100
AcDbLine
 10
8911.103183315
 20
8520.1664517389
 30
0.0
 11
8911.103183315
 21
8520.4141341837
 31
0.0
  0
LINE
  5
15E
330
1F
100
AcDbEntity
  8
0
  6
Continuous
 62
     7
370
    15
100
AcDbLine
 10
11911.103183315
 20
8520.1664517389
 30
0.0
 11
11911.103183315
 21
8520.4141341837
 31
0.0
  0
LINE
  5
15F
330
1F
100
AcDbEntity
  8
0
  6
Continuous
 62
     7
370
    15
100
AcDbLine
 10
11911.103183315
 20
8519.9219278747
 30
0.0
 11
8911.103183315
 21
8519.9219278747
 31
0.0
  0
LINE
  5
160
330
1F
100
AcDbEntity
  8
0
  6
Continuous
 62
     7
370
    15
100
AcDbLine
 10
8911.103183315
 20
8519.9219278747
 30
0.0
 11
8911.103183315
 21
8520.1664517389
 31
0.0
  0
LINE
  5
161
330
1F
100
AcDbEntity
  8
0
  6
Continuous
 62
     7
370
    15
100
AcDbLine
 10
11911.103183315
 20
8519.9219278747
 30
0.0
 11
11911.103183315
 21
8520.1664517389
 31
0.0
  0
LINE
  5
162
330
1F
100
AcDbEntity
  8
0
  6
Continuous
 62
     7
370
    15
100
AcDbLine
 10
11911.103183315
 20
8526.7791700771
 30
0.0
 11
8911.103183315
 21
8526.7791700771
 31
0.0
  0
LINE
  5
163
330
1F
100
AcDbEntity
  8
0
  6
Continuous
 62
     7
370
    15
100
AcDbLine
 10
8911.103183315
 20
8526.7791700771
 30
0.0
 11
8911.103183315
 21
8526.2504731526
 31
0.0
  0
LINE
  5
164
330
1F
100
AcDbEntity
  8
0
  6
Continuous
 62
     7
370
    15
100
AcDbLine
 10
11911.103183315
 20
8526.7791700771
 30
0.0
 11
11911.103183315
 21
8526.2504731526
 31
0.0
  0
LINE
  5
165
330
1F
100
AcDbEntity
  8
0
  6
Continuous
 62
     7
370
    15
100
AcDbLine
 10
11911.103183315
 20
8519.6811772639
 30
0.0
 11
8911.103183315
 21
8519.6811772639
 31
0.0
  0
LINE
  5
166
330
1F
100
AcDbEntity
  8
0
  6
Continuous
 62
     7
370
    15
100
AcDbLine
 10
8911.103183315
 20
8519.6811772639
 30
0.0
 11
8911.103183315
 21
8519.9219278747
 31
0.0
  0
LINE
  5
167
330
1F
100
AcDbEntity
  8
0
  6
Continuous
 62
     7
370
    15
100
AcDbLine
 10
11911.103183315
 20
8519.6811772639
 30
0.0
 11
11911.103183315
 21
8519.9219278747
 31
0.0
  0
LINE
  5
168
330
1F
100
AcDbEntity
  8
0
  6
Continuous
 62
     7
370
    15
100
AcDbLine
 10
11911.103183315
 20
8527.3099915812
 30
0.0
 11
8911.103183315
 21
8527.3099915812
 31
0.0
  0
LINE
  5
169
330
1F
100
AcDbEntity
  8
0
  6
Continuous
 62
     7
370
    15
100
AcDbLine
 10
8911.103183315
 20
8527.3099915812
 30
0.0
 11
8911.103183315
 21
8526.7791700771
 31
0.0
  0
LINE
  5
16A
330
1F
100
AcDbEntity
  8
0
  6
Continuous
 62
     7
370
    15
100
AcDbLine
 10
11911.103183315
 20
8527.3099915812
 30
0.0
 11
11911.103183315
 21
8526.7791700771
 31
0.0
  0
LINE
  5
16B
330
1F
100
AcDbEntity
  8
0
  6
Continuous
 62
     7
370
    15
100
AcDbLine
 10
11911.103183315
 20
8519.4448052661
 30
0.0
 11
8911.103183315
 21
8519.4448052661
 31
0.0
  0
LINE
  5
16C
330
1F
100
AcDbEntity
  8
0
  6
Continuous
 62
     7
370
    15
100
AcDbLine
 10
8911.103183315
 20
8519.4448052661
 30
0.0
 11
8911.103183315
 21
8519.6811772639
 31
0.0
  0
LINE
  5
16D
330
1F
100
AcDbEntity
  8
0
  6
Continuous
 62
     7
370
    15
100
AcDbLine
 10
11911.103183315
 20
8519.4448052661
 30
0.0
 11
11911.103183315
 21
8519.6811772639
 31
0.0
  0
LINE
  5
16E
330
1F
100
AcDbEntity
  8
0
  6
Continuous
 62
     7
370
    15
100
AcDbLine
 10
11911.103183315
 20
8519.2134055996
 30
0.0
 11
8911.103183315
 21
8519.2134055996
 31
0.0
  0
LINE
  5
16F
330
1F
100
AcDbEntity
  8
0
  6
Continuous
 62
     7
370
    15
100
AcDbLine
 10
8911.103183315
 20
8519.2134055996
 30
0.0
 11
8911.103183315
 21
8519.4448052661
 31
0.0
  0
LINE
  5
170
330
1F
100
AcDbEntity
  8
0
  6
Continuous
 62
     7
370
    15
100
AcDbLine
 10
11911.103183315
 20
8519.2134055996
 30
0.0
 11
11911.103183315
 21
8519.4448052661
 31
0.0
  0
LINE
  5
171
330
1F
100
AcDbEntity
  8
0
  6
Continuous
 62
     7
370
    15
100
AcDbLine
 10
11911.103183315
 20
8527.8428012261
 30
0.0
 11
8911.103183315
 21
8527.8428012261
 31
0.0
  0
LINE
  5
172
330
1F
100
AcDbEntity
  8
0
  6
Continuous
 62
     7
370
    15
100
AcDbLine
 10
8911.103183315
 20
8527.8428012261
 30
0.0
 11
8911.103183315
 21
8527.3099915812
 31
0.0
  0
LINE
  5
173
330
1F
100
AcDbEntity
  8
0
  6
Continuous
 62
     7
370
    15
100
AcDbLine
 10
11911.103183315
 20
8527.8428012261
 30
0.0
 11
11911.103183315
 21
8527.3099915812
 31
0.0
  0
LINE
  5
174
330
1F
100
AcDbEntity
  8
0
  6
Continuous
 62
     7
370
    15
100
AcDbLine
 10
11911.103183315
 20
8518.9875598753
 30
0.0
 11
8911.103183315
 21
8518.9875598753
 31
0.0
  0
LINE
  5
175
330
1F
100
AcDbEntity
  8
0
  6
Continuous
 62
     7
370
    15
100
AcDbLine
 10
8911.103183315
 20
8518.9875598753
 30
0.0
 11
8911.103183315
 21
8519.2134055996
 31
0.0
  0
LINE
  5
176
330
1F
100
AcDbEntity
  8
0
  6
Continuous
 62
     7
370
    15
100
AcDbLine
 10
11911.103183315
 20
8518.9875598753
 30
0.0
 11
11911.103183315
 21
8519.2134055996
 31
0.0
  0
LINE
  5
177
330
1F
100
AcDbEntity
  8
0
  6
Continuous
 62
     7
370
    15
100
AcDbLine
 10
11911.103183315
 20
8528.3774618746
 30
0.0
 11
8911.103183315
 21
8528.3774618746
 31
0.0
  0
LINE
  5
178
330
1F
100
AcDbEntity
  8
0
  6
Continuous
 62
     7
370
    15
100
AcDbLine
 10
8911.103183315
 20
8528.3774618746
 30
0.0
 11
8911.103183315
 21
8527.8428012261
 31
0.0
  0
LINE
  5
179
330
1F
100
AcDbEntity
  8
0
  6
Continuous
 62
     7
370
    15
100
AcDbLine
 10
11911.103183315
 20
8528.3774618746
 30
0.0
 11
11911.103183315
 21
8527.8428012261
 31
0.0
  0
LINE
  5
17A
330
1F
100
AcDbEntity
  8
0
  6
Continuous
 62
     7
370
    15
100
AcDbLine
 10
11911.103183315
 20
8518.7678361999
 30
0.0
 11
8911.103183315
 21
8518.7678361999
 31
0.0
  0
LINE
  5
17B
330
1F
100
AcDbEntity
  8
0
  6
Continuous
 62
     7
370
    15
100
AcDbLine
 10
8911.103183315
 20
8518.7678361999
 30
0.0
 11
8911.103183315
 21
8518.9875598753
 31
0.0
  0
LINE
  5
17C
330
1F
100
AcDbEntity
  8
0
  6
Continuous
 62
     7
370
    15
100
AcDbLine
 10
11911.103183315
 20
8518.7678361999
 30
0.0
 11
11911.103183315
 21
8518.9875598753
 31
0.0
  0
LINE
  5
17D
330
1F
100
AcDbEntity
  8
0
  6
Continuous
 62
     7
370
    15
100
AcDbLine
 10
11911.103183315
 20
8528.9138361567
 30
0.0
 11
8911.103183315
 21
8528.9138361567
 31
0.0
  0
LINE
  5
17E
330
1F
100
AcDbEntity
  8
0
  6
Continuous
 62
     7
370
    15
100
AcDbLine
 10
8911.103183315
 20
8528.9138361567
 30
0.0
 11
8911.103183315
 21
8528.3774618746
 31
0.0
  0
LINE
  5
17F
330
1F
100
AcDbEntity
  8
0
  6
Continuous
 62
     7
370
    15
100
AcDbLine
 10
11911.103183315
 20
8528.9138361567
 30
0.0
 11
11911.103183315
 21
8528.3774618746
 31
0.0
  0
LINE
  5
180
330
1F
100
AcDbEntity
  8
0
  6
Continuous
 62
     7
370
    15
100
AcDbLine
 10
11911.103183315
 20
8514.2899613583
 30
0.0
 11
8911.103183315
 21
8514.2899613583
 31
0.0
  0
LINE
  5
181
330
1F
100
AcDbEntity
  8
0
  6
Continuous
 62
     7
370
    15
100
AcDbLine
 10
8911.103183315
 20
8518.7678361999
 30
0.0
 11
8911.103183315
 21
8514.2899613583
 31
0.0
  0
LINE
  5
182
330
1F
100
AcDbEntity
  8
0
  6
Continuous
 62
     7
370
    15
100
AcDbLine
 10
11911.103183315
 20
8518.7678361999
 30
0.0
 11
11911.103183315
 21
8514.2899613583
 31
0.0
  0
LINE
  5
183
330
1F
100
AcDbEntity
  8
0
  6
Continuous
 62
     7
370
    15
100
AcDbLine
 10
11911.103183315
 20
8529.4517862366
 30
0.0
 11
8911.103183315
 21
8529.4517862366
 31
0.0
  0
LINE
  5
184
330
1F
100
AcDbEntity
  8
0
  6
Continuous
 62
     7
370
    15
100
AcDbLine
 10
8911.103183315
 20
8529.4517862366
 30
0.0
 11
8911.103183315
 21
8528.9138361567
 31
0.0
  0
LINE
  5
185
330
1F
100
AcDbEntity
  8
0
  6
Continuous
 62
     7
370
    15
100
AcDbLine
 10
11911.103183315
 20
8529.4517862366
 30
0.0
 11
11911.103183315
 21
8528.9138361567
 31
0.0
  0
LINE
  5
186
330
1F
100
AcDbEntity
  8
0
  6
Continuous
 62
     7
370
    15
100
AcDbLine
 10
11911.103183315
 20
8529.792845411
 30
0.0
 11
8911.103183315
 21
8529.792845411
 31
0.0
  0
LINE
  5
187
330
1F
100
AcDbEntity
  8
0
  6
Continuous
 62
     7
370
    15
100
AcDbLine
 10
8911.103183315
 20
8529.4517862366
 30
0.0
 11
8911.103183315
 21
8529.792845411
 31
0.0
  0
LINE
  5
188
330
1F
100
AcDbEntity
  8
0
  6
Continuous
 62
     7
370
    15
100
AcDbLine
 10
11911.103183315
 20
8529.4517862366
 30
0.0
 11
11911.103183315
 21
8529.792845411
 31
0.0
  0
LINE
  5
189
330
1F
100
AcDbEntity
  8
0
  6
Continuous
 62
     7
370
    15
100
AcDbLine
 10
11911.103183315
 20
8530.1283767203
 30
0.0
 11
8911.103183315
 21
8530.1283767203
 31
0.0
  0
LINE
  5
18A
330
1F
100
AcDbEntity
  8
0
  6
Continuous
 62
     7
370
    15
100
AcDbLine
 10
8911.103183315
 20
8529.792845411
 30
0.0
 11
8911.103183315
 21
8530.1283767203
 31
0.0
  0
LINE
  5
18B
330
1F
100
AcDbEntity
  8
0
  6
Continuous
 62
     7
370
    15
100
AcDbLine
 10
11911.103183315
 20
8529.792845411
 30
0.0
 11
11911.103183315
 21
8530.1283767203
 31
0.0
  0
LINE
  5
18C
330
1F
100
AcDbEntity
  8
0
  6
Continuous
 62
     7
370
    15
100
AcDbLine
 10
11911.103183315
 20
8530.4567987786
 30
0.0
 11
8911.103183315
 21
8530.4567987786
 31
0.0
  0
LINE
  5
18D
330
1F
100
AcDbEntity
  8
0
  6
Continuous
 62
     7
370
    15
100
AcDbLine
 10
8911.103183315
 20
8530.1283767203
 30
0.0
 11
8911.103183315
 21
8530.4567987786
 31
0.0
  0
LINE
  5
18E
330
1F
100
AcDbEntity
  8
0
  6
Continuous
 62
     7
370
    15
100
AcDbLine
 10
11911.103183315
 20
8530.1283767203
 30
0.0
 11
11911.103183315
 21
8530.4567987786
 31
0.0
  0
LINE
  5
18F
330
1F
100
AcDbEntity
  8
0
  6
Continuous
 62
     7
370
    15
100
AcDbLine
 10
11911.103183315
 20
8530.7765641937
 30
0.0
 11
8911.103183315
 21
8530.7765641937
 31
0.0
  0
LINE
  5
190
330
1F
100
AcDbEntity
  8
0
  6
Continuous
 62
     7
370
    15
100
AcDbLine
 10
8911.103183315
 20
8530.4567987786
 30
0.0
 11
8911.103183315
 21
8530.7765641937
 31
0.0
  0
LINE
  5
191
330
1F
100
AcDbEntity
  8
0
  6
Continuous
 62
     7
370
    15
100
AcDbLine
 10
11911.103183315
 20
8530.4567987786
 30
0.0
 11
11911.103183315
 21
8530.7765641937
 31
0.0
  0
LINE
  5
192
330
1F
100
AcDbEntity
  8
0
  6
Continuous
 62
     7
370
    15
100
AcDbLine
 10
11911.103183315
 20
8531.0861665511
 30
0.0
 11
8911.103183315
 21
8531.0861665511
 31
0.0
  0
LINE
  5
193
330
1F
100
AcDbEntity
  8
0
  6
Continuous
 62
     7
370
    15
100
AcDbLine
 10
8911.103183315
 20
8530.7765641937
 30
0.0
 11
8911.103183315
 21
8531.0861665511
 31
0.0
  0
LINE
  5
194
330
1F
100
AcDbEntity
  8
0
  6
Continuous
 62
     7
370
    15
100
AcDbLine
 10
11911.103183315
 20
8530.7765641937
 30
0.0
 11
11911.103183315
 21
8531.0861665511
 31
0.0
  0
LINE
  5
195
330
1F
100
AcDbEntity
  8
0
  6
Continuous
 62
     7
370
    15
100
AcDbLine
 10
11911.103183315
 20
8531.3841464685
 30
0.0
 11
8911.103183315
 21
8531.3841464685
 31
0.0
  0
LINE
  5
196
330
1F
100
AcDbEntity
  8
0
  6
Continuous
 62
     7
370
    15
100
AcDbLine
 10
8911.103183315
 20
8531.0861665511
 30
0.0
 11
8911.103183315
 21
8531.3841464685
 31
0.0
  0
LINE
  5
197
330
1F
100
AcDbEntity
  8
0
  6
Continuous
 62
     7
370
    15
100
AcDbLine
 10
11911.103183315
 20
8531.0861665511
 30
0.0
 11
11911.103183315
 21
8531.3841464685
 31
0.0
  0
LINE
  5
198
330
1F
100
AcDbEntity
  8
0
  6
Continuous
 62
     7
370
    15
100
AcDbLine
 10
11911.103183315
 20
8531.669099977
 30
0.0
 11
8911.103183315
 21
8531.669099977
 31
0.0
  0
LINE
  5
199
330
1F
100
AcDbEntity
  8
0
  6
Continuous
 62
     7
370
    15
100
AcDbLine
 10
8911.103183315
 20
8531.3841464685
 30
0.0
 11
8911.103183315
 21
8531.669099977
 31
0.0
  0
LINE
  5
19A
330
1F
100
AcDbEntity
  8
0
  6
Continuous
 62
     7
370
    15
100
AcDbLine
 10
11911.103183315
 20
8531.3841464685
 30
0.0
 11
11911.103183315
 21
8531.669099977
 31
0.0
  0
LINE
  5
19B
330
1F
100
AcDbEntity
  8
0
  6
Continuous
 62
     7
370
    15
100
AcDbLine
 10
11911.103183315
 20
8531.9386442879
 30
0.0
 11
8911.103183315
 21
8531.9386442879
 31
0.0
  0
LINE
  5
19C
330
1F
100
AcDbEntity
  8
0
  6
Continuous
 62
     7
370
    15
100
AcDbLine
 10
8911.103183315
 20
8531.669099977
 30
0.0
 11
8911.103183315
 21
8531.9386442879
 31
0.0
  0
LINE
  5
19D
330
1F
100
AcDbEntity
  8
0
  6
Continuous
 62
     7
370
    15
100
AcDbLine
 10
11911.103183315
 20
8531.669099977
 30
0.0
 11
11911.103183315
 21
8531.9386442879
 31
0.0
  0
LINE
  5
19E
330
1F
100
AcDbEntity
  8
0
  6
Continuous
 62
     7
370
    15
100
AcDbLine
 10
11911.103183315
 20
8532.6049292216
 30
0.0
 11
8911.103183315
 21
8532.6049292216
 31
0.0
  0
LINE
  5
19F
330
1F
100
AcDbEntity
  8
0
  6
Continuous
 62
     7
370
    15
100
AcDbLine
 10
8911.103183315
 20
8531.9386442879
 30
0.0
 11
8911.103183315
 21
8532.6049292216
 31
0.0
  0
LINE
  5
1A0
330
1F
100
AcDbEntity
  8
0
  6
Continuous
 62
     7
370
    15
100
AcDbLine
 10
11911.103183315
 20
8531.9386442879
 30
0.0
 11
11911.103183315
 21
8532.6049292216
 31
0.0
  0
LINE
  5
1A1
330
1F
100
AcDbEntity
  8
0
  6
Continuous
 62
     7
370
    15
100
AcDbLine
 10
11911.103183315
 20
8533.2604024315
 30
0.0
 11
8911.103183315
 21
8533.2604024315
 31
0.0
  0
LINE
  5
1A2
330
1F
100
AcDbEntity
  8
0
  6
Continuous
 62
     7
370
    15
100
AcDbLine
 10
8911.103183315
 20
8532.6049292216
 30
0.0
 11
8911.103183315
 21
8533.2604024315
 31
0.0
  0
LINE
  5
1A3
330
1F
100
AcDbEntity
  8
0
  6
Continuous
 62
     7
370
    15
100
AcDbLine
 10
11911.103183315
 20
8532.6049292216
 30
0.0
 11
11911.103183315
 21
8533.2604024315
 31
0.0
  0
LINE
  5
1A4
330
1F
100
AcDbEntity
  8
0
  6
Continuous
 62
     7
370
    15
100
AcDbLine
 10
11911.103183315
 20
8533.9048469195
 30
0.0
 11
8911.103183315
 21
8533.9048469195
 31
0.0
  0
LINE
  5
1A5
330
1F
100
AcDbEntity
  8
0
  6
Continuous
 62
     7
370
    15
100
AcDbLine
 10
8911.103183315
 20
8533.2604024315
 30
0.0
 11
8911.103183315
 21
8533.9048469195
 31
0.0
  0
LINE
  5
1A6
330
1F
100
AcDbEntity
  8
0
  6
Continuous
 62
     7
370
    15
100
AcDbLine
 10
11911.103183315
 20
8533.2604024315
 30
0.0
 11
11911.103183315
 21
8533.9048469195
 31
0.0
  0
LINE
  5
1A7
330
1F
100
AcDbEntity
  8
0
  6
Continuous
 62
     7
370
    15
100
AcDbLine
 10
11911.103183315
 20
8514.0318033972
 30
0.0
 11
8911.103183315
 21
8514.0318033972
 31
0.0
  0
LINE
  5
1A8
330
1F
100
AcDbEntity
  8
0
  6
Continuous
 62
     7
370
    15
100
AcDbLine
 10
8911.103183315
 20
8514.0318033972
 30
0.0
 11
8911.103183315
 21
8514.2899613583
 31
0.0
  0
LINE
  5
1A9
330
1F
100
AcDbEntity
  8
0
  6
Continuous
 62
     7
370
    15
100
AcDbLine
 10
11911.103183315
 20
8514.0318033972
 30
0.0
 11
11911.103183315
 21
8514.2899613583
 31
0.0
  0
LINE
  5
1AA
330
1F
100
AcDbEntity
  8
0
  6
Continuous
 62
     7
370
    15
100
AcDbLine
 10
11911.103183315
 20
8513.7844739238
 30
0.0
 11
8911.103183315
 21
8513.7844739238
 31
0.0
  0
LINE
  5
1AB
330
1F
100
AcDbEntity
  8
0
  6
Continuous
 62
     7
370
    15
100
AcDbLine
 10
8911.103183315
 20
8513.7844739238
 30
0.0
 11
8911.103183315
 21
8514.0318033972
 31
0.0
  0
LINE
  5
1AC
330
1F
100
AcDbEntity
  8
0
  6
Continuous
 62
     7
370
    15
100
AcDbLine
 10
11911.103183315
 20
8513.7844739238
 30
0.0
 11
11911.103183315
 21
8514.0318033972
 31
0.0
  0
LINE
  5
1AD
330
1F
100
AcDbEntity
  8
0
  6
Continuous
 62
     7
370
    15
100
AcDbLine
 10
11911.103183315
 20
8534.5380484814
 30
0.0
 11
8911.103183315
 21
8534.5380484814
 31
0.0
  0
LINE
  5
1AE
330
1F
100
AcDbEntity
  8
0
  6
Continuous
 62
     7
370
    15
100
AcDbLine
 10
8911.103183315
 20
8533.9048469195
 30
0.0
 11
8911.103183315
 21
8534.5380484814
 31
0.0
  0
LINE
  5
1AF
330
1F
100
AcDbEntity
  8
0
  6
Continuous
 62
     7
370
    15
100
AcDbLine
 10
11911.103183315
 20
8533.9048469195
 30
0.0
 11
11911.103183315
 21
8534.5380484814
 31
0.0
  0
LINE
  5
1B0
330
1F
100
AcDbEntity
  8
0
  6
Continuous
 62
     7
370
    15
100
AcDbLine
 10
11911.103183315
 20
8513.5488921532
 30
0.0
 11
8911.103183315
 21
8513.5488921532
 31
0.0
  0
LINE
  5
1B1
330
1F
100
AcDbEntity
  8
0
  6
Continuous
 62
     7
370
    15
100
AcDbLine
 10
8911.103183315
 20
8513.5488921532
 30
0.0
 11
8911.103183315
 21
8513.7844739238
 31
0.0
  0
LINE
  5
1B2
330
1F
100
AcDbEntity
  8
0
  6
Continuous
 62
     7
370
    15
100
AcDbLine
 10
11911.103183315
 20
8513.5488921532
 30
0.0
 11
11911.103183315
 21
8513.7844739238
 31
0.0
  0
LINE
  5
1B3
330
1F
100
AcDbEntity
  8
0
  6
Continuous
 62
     7
370
    15
100
AcDbLine
 10
11911.103183315
 20
8513.3259335288
 30
0.0
 11
8911.103183315
 21
8513.3259335288
 31
0.0
  0
LINE
  5
1B4
330
1F
100
AcDbEntity
  8
0
  6
Continuous
 62
     7
370
    15
100
AcDbLine
 10
8911.103183315
 20
8513.3259335288
 30
0.0
 11
8911.103183315
 21
8513.5488921532
 31
0.0
  0
LINE
  5
1B5
330
1F
100
AcDbEntity
  8
0
  6
Continuous
 62
     7
370
    15
100
AcDbLine
 10
11911.103183315
 20
8513.3259335288
 30
0.0
 11
11911.103183315
 21
8513.5488921532
 31
0.0
  0
LINE
  5
1B6
330
1F
100
AcDbEntity
  8
0
  6
Continuous
 62
     7
370
    15
100
AcDbLine
 10
11911.103183315
 20
8513.1164259964
 30
0.0
 11
8911.103183315
 21
8513.1164259964
 31
0.0
  0
LINE
  5
1B7
330
1F
100
AcDbEntity
  8
0
  6
Continuous
 62
     7
370
    15
100
AcDbLine
 10
8911.103183315
 20
8513.1164259964
 30
0.0
 11
8911.103183315
 21
8513.3259335288
 31
0.0
  0
LINE
  5
1B8
330
1F
100
AcDbEntity
  8
0
  6
Continuous
 62
     7
370
    15
100
AcDbLine
 10
11911.103183315
 20
8513.1164259964
 30
0.0
 11
11911.103183315
 21
8513.3259335288
 31
0.0
  0
LINE
  5
1B9
330
1F
100
AcDbEntity
  8
0
  6
Continuous
 62
     7
370
    15
100
AcDbLine
 10
11911.103183315
 20
8535.1597994322
 30
0.0
 11
8911.103183315
 21
8535.1597994322
 31
0.0
  0
LINE
  5
1BA
330
1F
100
AcDbEntity
  8
0
  6
Continuous
 62
     7
370
    15
100
AcDbLine
 10
8911.103183315
 20
8534.5380484814
 30
0.0
 11
8911.103183315
 21
8535.1597994322
 31
0.0
  0
LINE
  5
1BB
330
1F
100
AcDbEntity
  8
0
  6
Continuous
 62
     7
370
    15
100
AcDbLine
 10
11911.103183315
 20
8534.5380484814
 30
0.0
 11
11911.103183315
 21
8535.1597994322
 31
0.0
  0
LINE
  5
1BC
330
1F
100
AcDbEntity
  8
0
  6
Continuous
 62
     7
370
    15
100
AcDbLine
 10
11911.103183315
 20
8512.9211500043
 30
0.0
 11
8911.103183315
 21
8512.9211500043
 31
0.0
  0
LINE
  5
1BD
330
1F
100
AcDbEntity
  8
0
  6
Continuous
 62
     7
370
    15
100
AcDbLine
 10
8911.103183315
 20
8512.9211500043
 30
0.0
 11
8911.103183315
 21
8513.1164259964
 31
0.0
  0
LINE
  5
1BE
330
1F
100
AcDbEntity
  8
0
  6
Continuous
 62
     7
370
    15
100
AcDbLine
 10
11911.103183315
 20
8512.9211500043
 30
0.0
 11
11911.103183315
 21
8513.1164259964
 31
0.0
  0
LINE
  5
1BF
330
1F
100
AcDbEntity
  8
0
  6
Continuous
 62
     7
370
    15
100
AcDbLine
 10
11911.103183315
 20
8512.74082919
 30
0.0
 11
8911.103183315
 21
8512.74082919
 31
0.0
  0
LINE
  5
1C0
330
1F
100
AcDbEntity
  8
0
  6
Continuous
 62
     7
370
    15
100
AcDbLine
 10
8911.103183315
 20
8512.74082919
 30
0.0
 11
8911.103183315
 21
8512.9211500043
 31
0.0
  0
LINE
  5
1C1
330
1F
100
AcDbEntity
  8
0
  6
Continuous
 62
     7
370
    15
100
AcDbLine
 10
11911.103183315
 20
8512.74082919
 30
0.0
 11
11911.103183315
 21
8512.9211500043
 31
0.0
  0
LINE
  5
1C2
330
1F
100
AcDbEntity
  8
0
  6
Continuous
 62
     7
370
    15
100
AcDbLine
 10
11911.103183315
 20
8512.5761359686
 30
0.0
 11
8911.103183315
 21
8512.5761359686
 31
0.0
  0
LINE
  5
1C3
330
1F
100
AcDbEntity
  8
0
  6
Continuous
 62
     7
370
    15
100
AcDbLine
 10
8911.103183315
 20
8512.5761359686
 30
0.0
 11
8911.103183315
 21
8512.74082919
 31
0.0
  0
LINE
  5
1C4
330
1F
100
AcDbEntity
  8
0
  6
Continuous
 62
     7
370
    15
100
AcDbLine
 10
11911.103183315
 20
8512.5761359686
 30
0.0
 11
11911.103183315
 21
8512.74082919
 31
0.0
  0
LINE
  5
1C5
330
1F
100
AcDbEntity
  8
0
  6
Continuous
 62
     7
370
    15
100
AcDbLine
 10
11911.103183315
 20
8535.769892087
 30
0.0
 11
8911.103183315
 21
8535.769892087
 31
0.0
  0
LINE
  5
1C6
330
1F
100
AcDbEntity
  8
0
  6
Continuous
 62
     7
370
    15
100
AcDbLine
 10
8911.103183315
 20
8535.1597994322
 30
0.0
 11
8911.103183315
 21
8535.769892087
 31
0.0
  0
LINE
  5
1C7
330
1F
100
AcDbEntity
  8
0
  6
Continuous
 62
     7
370
    15
100
AcDbLine
 10
11911.103183315
 20
8535.1597994322
 30
0.0
 11
11911.103183315
 21
8535.769892087
 31
0.0
  0
LINE
  5
1C8
330
1F
100
AcDbEntity
  8
0
  6
Continuous
 62
     7
370
    15
100
AcDbLine
 10
11911.103183315
 20
8510.6230184192
 30
0.0
 11
8911.103183315
 21
8510.6230184192
 31
0.0
  0
LINE
  5
1C9
330
1F
100
AcDbEntity
  8
0
  6
Continuous
 62
     7
370
    15
100
AcDbLine
 10
8911.103183315
 20
8512.5761359686
 30
0.0
 11
8911.103183315
 21
8510.6230184192
 31
0.0
  0
LINE
  5
1CA
330
1F
100
AcDbEntity
  8
0
  6
Continuous
 62
     7
370
    15
100
AcDbLine
 10
11911.103183315
 20
8512.5761359686
 30
0.0
 11
11911.103183315
 21
8510.6230184192
 31
0.0
  0
LINE
  5
1CB
330
1F
100
AcDbEntity
  8
0
  6
Continuous
 62
     7
370
    15
100
AcDbLine
 10
11911.103183315
 20
8536.3681262115
 30
0.0
 11
8911.103183315
 21
8536.3681262115
 31
0.0
  0
LINE
  5
1CC
330
1F
100
AcDbEntity
  8
0
  6
Continuous
 62
     7
370
    15
100
AcDbLine
 10
8911.103183315
 20
8535.769892087
 30
0.0
 11
8911.103183315
 21
8536.3681262115
 31
0.0
  0
LINE
  5
1CD
330
1F
100
AcDbEntity
  8
0
  6
Continuous
 62
     7
370
    15
100
AcDbLine
 10
11911.103183315
 20
8535.769892087
 30
0.0
 11
11911.103183315
 21
8536.3681262115
 31
0.0
  0
LINE
  5
1CE
330
1F
100
AcDbEntity
  8
0
  6
Continuous
 62
     7
370
    15
100
AcDbLine
 10
11911.103183315
 20
8536.9543015713
 30
0.0
 11
8911.103183315
 21
8536.9543015713
 31
0.0
  0
LINE
  5
1CF
330
1F
100
AcDbEntity
  8
0
  6
Continuous
 62
     7
370
    15
100
AcDbLine
 10
8911.103183315
 20
8536.3681262115
 30
0.0
 11
8911.103183315
 21
8536.9543015713
 31
0.0
  0
LINE
  5
1D0
330
1F
100
AcDbEntity
  8
0
  6
Continuous
 62
     7
370
    15
100
AcDbLine
 10
11911.103183315
 20
8536.3681262115
 30
0.0
 11
11911.103183315
 21
8536.9543015713
 31
0.0
  0
LINE
  5
1D1
330
1F
100
AcDbEntity
  8
0
  6
Continuous
 62
     7
370
    15
100
AcDbLine
 10
11911.103183315
 20
8537.1589196602
 30
0.0
 11
8911.103183315
 21
8537.1589196602
 31
0.0
  0
LINE
  5
1D2
330
1F
100
AcDbEntity
  8
0
  6
Continuous
 62
     7
370
    15
100
AcDbLine
 10
8911.103183315
 20
8536.9543015713
 30
0.0
 11
8911.103183315
 21
8537.1589196602
 31
0.0
  0
LINE
  5
1D3
330
1F
100
AcDbEntity
  8
0
  6
Continuous
 62
     7
370
    15
100
AcDbLine
 10
11911.103183315
 20
8536.9543015713
 30
0.0
 11
11911.103183315
 21
8537.1589196602
 31
0.0
  0
LINE
  5
1D4
330
1F
100
AcDbEntity
  8
0
  6
Continuous
 62
     7
370
    15
100
AcDbLine
 10
11911.103183315
 20
8537.3468223715
 30
0.0
 11
8911.103183315
 21
8537.3468223715
 31
0.0
  0
LINE
  5
1D5
330
1F
100
AcDbEntity
  8
0
  6
Continuous
 62
     7
370
    15
100
AcDbLine
 10
8911.103183315
 20
8537.1589196602
 30
0.0
 11
8911.103183315
 21
8537.3468223715
 31
0.0
  0
LINE
  5
1D6
330
1F
100
AcDbEntity
  8
0
  6
Continuous
 62
     7
370
    15
100
AcDbLine
 10
11911.103183315
 20
8537.1589196602
 30
0.0
 11
11911.103183315
 21
8537.3468223715
 31
0.0
  0
LINE
  5
1D7
330
1F
100
AcDbEntity
  8
0
  6
Continuous
 62
     7
370
    15
100
AcDbLine
 10
11911.103183315
 20
8537.5172329822
 30
0.0
 11
8911.103183315
 21
8537.5172329822
 31
0.0
  0
LINE
  5
1D8
330
1F
100
AcDbEntity
  8
0
  6
Continuous
 62
     7
370
    15
100
AcDbLine
 10
8911.103183315
 20
8537.3468223715
 30
0.0
 11
8911.103183315
 21
8537.5172329822
 31
0.0
  0
LINE
  5
1D9
330
1F
100
AcDbEntity
  8
0
  6
Continuous
 62
     7
370
    15
100
AcDbLine
 10
11911.103183315
 20
8537.3468223715
 30
0.0
 11
11911.103183315
 21
8537.5172329822
 31
0.0
  0
LINE
  5
1DA
330
1F
100
AcDbEntity
  8
0
  6
Continuous
 62
     7
370
    15
100
AcDbLine
 10
11911.103183315
 20
8537.6694483438
 30
0.0
 11
8911.103183315
 21
8537.6694483438
 31
0.0
  0
LINE
  5
1DB
330
1F
100
AcDbEntity
  8
0
  6
Continuous
 62
     7
370
    15
100
AcDbLine
 10
8911.103183315
 20
8537.5172329822
 30
0.0
 11
8911.103183315
 21
8537.6694483438
 31
0.0
  0
LINE
  5
1DC
330
1F
100
AcDbEntity
  8
0
  6
Continuous
 62
     7
370
    15
100
AcDbLine
 10
11911.103183315
 20
8537.5172329822
 30
0.0
 11
11911.103183315
 21
8537.6694483438
 31
0.0
  0
LINE
  5
1DD
330
1F
100
AcDbEntity
  8
0
  6
Continuous
 62
     7
370
    15
100
AcDbLine
 10
11911.103183315
 20
8537.8028388822
 30
0.0
 11
8911.103183315
 21
8537.8028388822
 31
0.0
  0
LINE
  5
1DE
330
1F
100
AcDbEntity
  8
0
  6
Continuous
 62
     7
370
    15
100
AcDbLine
 10
8911.103183315
 20
8537.6694483438
 30
0.0
 11
8911.103183315
 21
8537.8028388822
 31
0.0
  0
LINE
  5
1DF
330
1F
100
AcDbEntity
  8
0
  6
Continuous
 62
     7
370
    15
100
AcDbLine
 10
11911.103183315
 20
8537.6694483438
 30
0.0
 11
11911.103183315
 21
8537.8028388822
 31
0.0
  0
LINE
  5
1E0
330
1F
100
AcDbEntity
  8
0
  6
Continuous
 62
     7
370
    15
100
AcDbLine
 10
11911.103183315
 20
8537.9168523231
 30
0.0
 11
8911.103183315
 21
8537.9168523231
 31
0.0
  0
LINE
  5
1E1
330
1F
100
AcDbEntity
  8
0
  6
Continuous
 62
     7
370
    15
100
AcDbLine
 10
8911.103183315
 20
8537.8028388822
 30
0.0
 11
8911.103183315
 21
8537.9168523231
 31
0.0
  0
LINE
  5
1E2
330
1F
100
AcDbEntity
  8
0
  6
Continuous
 62
     7
370
    15
100
AcDbLine
 10
11911.103183315
 20
8537.8028388822
 30
0.0
 11
11911.103183315
 21
8537.9168523231
 31
0.0
  0
LINE
  5
1E3
330
1F
100
AcDbEntity
  8
0
  6
Continuous
 62
     7
370
    15
100
AcDbLine
 10
11911.103183315
 20
8510.4423288012
 30
0.0
 11
8911.103183315
 21
8510.4423288012
 31
0.0
  0
LINE
  5
1E4
330
1F
100
AcDbEntity
  8
0
  6
Continuous
 62
     7
370
    15
100
AcDbLine
 10
8911.103183315
 20
8510.4423288012
 30
0.0
 11
8911.103183315
 21
8510.6230184192
 31
0.0
  0
LINE
  5
1E5
330
1F
100
AcDbEntity
  8
0
  6
Continuous
 62
     7
370
    15
100
AcDbLine
 10
11911.103183315
 20
8510.4423288012
 30
0.0
 11
11911.103183315
 21
8510.6230184192
 31
0.0
  0
LINE
  5
1E6
330
1F
100
AcDbEntity
  8
0
  6
Continuous
 62
     7
370
    15
100
AcDbLine
 10
11911.103183315
 20
8538.0110202113
 30
0.0
 11
8911.103183315
 21
8538.0110202113
 31
0.0
  0
LINE
  5
1E7
330
1F
100
AcDbEntity
  8
0
  6
Continuous
 62
     7
370
    15
100
AcDbLine
 10
8911.103183315
 20
8537.9168523231
 30
0.0
 11
8911.103183315
 21
8538.0110202113
 31
0.0
  0
LINE
  5
1E8
330
1F
100
AcDbEntity
  8
0
  6
Continuous
 62
     7
370
    15
100
AcDbLine
 10
11911.103183315
 20
8537.9168523231
 30
0.0
 11
11911.103183315
 21
8538.0110202113
 31
0.0
  0
LINE
  5
1E9
330
1F
100
AcDbEntity
  8
0
  6
Continuous
 62
     7
370
    15
100
AcDbLine
 10
11911.103183315
 20
8510.2873539308
 30
0.0
 11
8911.103183315
 21
8510.2873539308
 31
0.0
  0
LINE
  5
1EA
330
1F
100
AcDbEntity
  8
0
  6
Continuous
 62
     7
370
    15
100
AcDbLine
 10
8911.103183315
 20
8510.2873539308
 30
0.0
 11
8911.103183315
 21
8510.4423288012
 31
0.0
  0
LINE
  5
1EB
330
1F
100
AcDbEntity
  8
0
  6
Continuous
 62
     7
370
    15
100
AcDbLine
 10
11911.103183315
 20
8510.2873539308
 30
0.0
 11
11911.103183315
 21
8510.4423288012
 31
0.0
  0
LINE
  5
1EC
330
1F
100
AcDbEntity
  8
0
  6
Continuous
 62
     7
370
    15
100
AcDbLine
 10
11911.103183315
 20
8538.0849504599
 30
0.0
 11
8911.103183315
 21
8538.0849504599
 31
0.0
  0
LINE
  5
1ED
330
1F
100
AcDbEntity
  8
0
  6
Continuous
 62
     7
370
    15
100
AcDbLine
 10
8911.103183315
 20
8538.0110202113
 30
0.0
 11
8911.103183315
 21
8538.0849504599
 31
0.0
  0
LINE
  5
1EE
330
1F
100
AcDbEntity
  8
0
  6
Continuous
 62
     7
370
    15
100
AcDbLine
 10
11911.103183315
 20
8538.0110202113
 30
0.0
 11
11911.103183315
 21
8538.0849504599
 31
0.0
  0
LINE
  5
1EF
330
1F
100
AcDbEntity
  8
0
  6
Continuous
 62
     7
370
    15
100
AcDbLine
 10
11911.103183315
 20
8510.1589711139
 30
0.0
 11
8911.103183315
 21
8510.1589711139
 31
0.0
  0
LINE
  5
1F0
330
1F
100
AcDbEntity
  8
0
  6
Continuous
 62
     7
370
    15
100
AcDbLine
 10
8911.103183315
 20
8510.1589711139
 30
0.0
 11
8911.103183315
 21
8510.2873539308
 31
0.0
  0
LINE
  5
1F1
330
1F
100
AcDbEntity
  8
0
  6
Continuous
 62
     7
370
    15
100
AcDbLine
 10
11911.103183315
 20
8510.1589711139
 30
0.0
 11
11911.103183315
 21
8510.2873539308
 31
0.0
  0
LINE
  5
1F2
330
1F
100
AcDbEntity
  8
0
  6
Continuous
 62
     7
370
    15
100
AcDbLine
 10
11911.103183315
 20
8538.4149040783
 30
0.0
 11
8911.103183315
 21
8538.4149040783
 31
0.0
  0
LINE
  5
1F3
330
1F
100
AcDbEntity
  8
0
  6
Continuous
 62
     7
370
    15
100
AcDbLine
 10
8911.103183315
 20
8538.4149040783
 30
0.0
 11
8911.103183315
 21
8538.0849504599
 31
0.0
  0
LINE
  5
1F4
330
1F
100
AcDbEntity
  8
0
  6
Continuous
 62
     7
370
    15
100
AcDbLine
 10
11911.103183315
 20
8538.4149040783
 30
0.0
 11
11911.103183315
 21
8538.0849504599
 31
0.0
  0
LINE
  5
1F5
330
1F
100
AcDbEntity
  8
0
  6
Continuous
 62
     7
370
    15
100
AcDbLine
 10
11911.103183315
 20
8510.0579049194
 30
0.0
 11
8911.103183315
 21
8510.0579049194
 31
0.0
  0
LINE
  5
1F6
330
1F
100
AcDbEntity
  8
0
  6
Continuous
 62
     7
370
    15
100
AcDbLine
 10
8911.103183315
 20
8510.0579049194
 30
0.0
 11
8911.103183315
 21
8510.1589711139
 31
0.0
  0
LINE
  5
1F7
330
1F
100
AcDbEntity
  8
0
  6
Continuous
 62
     7
370
    15
100
AcDbLine
 10
11911.103183315
 20
8510.0579049194
 30
0.0
 11
11911.103183315
 21
8510.1589711139
 31
0.0
  0
LINE
  5
1F8
330
1F
100
AcDbEntity
  8
0
  6
Continuous
 62
     7
370
    15
100
AcDbLine
 10
11911.103183315
 20
8509.2672651389
 30
0.0
 11
8911.103183315
 21
8509.2672651389
 31
0.0
  0
LINE
  5
1F9
330
1F
100
AcDbEntity
  8
0
  6
Continuous
 62
     7
370
    15
100
AcDbLine
 10
8911.103183315
 20
8509.2672651389
 30
0.0
 11
8911.103183315
 21
8510.0579049194
 31
0.0
  0
LINE
  5
1FA
330
1F
100
AcDbEntity
  8
0
  6
Continuous
 62
     7
370
    15
100
AcDbLine
 10
11911.103183315
 20
8509.2672651389
 30
0.0
 11
11911.103183315
 21
8510.0579049194
 31
0.0
  0
LINE
  5
1FB
330
1F
100
AcDbEntity
  8
0
  6
Continuous
 62
     7
370
    15
100
AcDbLine
 10
11911.103183315
 20
8538.4430356079
 30
0.0
 11
8911.103183315
 21
8538.4430356079
 31
0.0
  0
LINE
  5
1FC
330
1F
100
AcDbEntity
  8
0
  6
Continuous
 62
     7
370
    15
100
AcDbLine
 10
8911.103183315
 20
8538.4430356079
 30
0.0
 11
8911.103183315
 21
8538.4149040783
 31
0.0
  0
LINE
  5
1FD
330
1F
100
AcDbEntity
  8
0
  6
Continuous
 62
     7
370
    15
100
AcDbLine
 10
11911.103183315
 20
8538.4430356079
 30
0.0
 11
11911.103183315
 21
8538.4149040783
 31
0.0
  0
LINE
  5
1FE
330
1F
100
AcDbEntity
  8
0
  6
Continuous
 62
     7
370
    15
100
AcDbLine
 10
11911.103183315
 20
8538.4746698418
 30
0.0
 11
8911.103183315
 21
8538.4746698418
 31
0.0
  0
LINE
  5
1FF
330
1F
100
AcDbEntity
  8
0
  6
Continuous
 62
     7
370
    15
100
AcDbLine
 10
8911.103183315
 20
8538.4746698418
 30
0.0
 11
8911.103183315
 21
8538.4430356079
 31
0.0
  0
LINE
  5
200
330
1F
100
AcDbEntity
  8
0
  6
Continuous
 62
     7
370
    15
100
AcDbLine
 10
11911.103183315
 20
8538.4746698418
 30
0.0
 11
11911.103183315
 21
8538.4430356079
 31
0.0
  0
LINE
  5
201
330
1F
100
AcDbEntity
  8
0
  6
Continuous
 62
     7
370
    15
100
AcDbLine
 10
11911.103183315
 20
8538.9752724895
 30
0.0
 11
8911.103183315
 21
8538.9752724895
 31
0.0
  0
LINE
  5
202
330
1F
100
AcDbEntity
  8
0
  6
Continuous
 62
     7
370
    15
100
AcDbLine
 10
8911.103183315
 20
8538.9752724895
 30
0.0
 11
8911.103183315
 21
8538.4746698418
 31
0.0
  0
LINE
  5
203
330
1F
100
AcDbEntity
  8
0
  6
Continuous
 62
     7
370
    15
100
AcDbLine
 10
11911.103183315
 20
8538.9752724895
 30
0.0
 11
11911.103183315
 21
8538.4746698418
 31
0.0
  0
LINE
  5
204
330
1F
100
AcDbEntity
  8
0
  6
Continuous
 62
     7
370
    15
100
AcDbLine
 10
11911.103183315
 20
8539.0439975762
 30
0.0
 11
8911.103183315
 21
8539.0439975762
 31
0.0
  0
LINE
  5
205
330
1F
100
AcDbEntity
  8
0
  6
Continuous
 62
     7
370
    15
100
AcDbLine
 10
8911.103183315
 20
8538.9752724895
 30
0.0
 11
8911.103183315
 21
8539.0439975762
 31
0.0
  0
LINE
  5
206
330
1F
100
AcDbEntity
  8
0
  6
Continuous
 62
     7
370
    15
100
AcDbLine
 10
11911.103183315
 20
8538.9752724895
 30
0.0
 11
11911.103183315
 21
8539.0439975762
 31
0.0
  0
LINE
  5
207
330
1F
100
AcDbEntity
  8
0
  6
Continuous
 62
     7
370
    15
100
AcDbLine
 10
11911.103183315
 20
8509.2085927481
 30
0.0
 11
8911.103183315
 21
8509.2085927481
 31
0.0
  0
LINE
  5
208
330
1F
100
AcDbEntity
  8
0
  6
Continuous
 62
     7
370
    15
100
AcDbLine
 10
8911.103183315
 20
8509.2085927481
 30
0.0
 11
8911.103183315
 21
8509.2672651389
 31
0.0
  0
LINE
  5
209
330
1F
100
AcDbEntity
  8
0
  6
Continuous
 62
     7
370
    15
100
AcDbLine
 10
11911.103183315
 20
8509.2085927481
 30
0.0
 11
11911.103183315
 21
8509.2672651389
 31
0.0
  0
LINE
  5
20A
330
1F
100
AcDbEntity
  8
0
  6
Continuous
 62
     7
370
    15
100
AcDbLine
 10
11911.103183315
 20
8539.0932794416
 30
0.0
 11
8911.103183315
 21
8539.0932794416
 31
0.0
  0
LINE
  5
20B
330
1F
100
AcDbEntity
  8
0
  6
Continuous
 62
     7
370
    15
100
AcDbLine
 10
8911.103183315
 20
8539.0439975762
 30
0.0
 11
8911.103183315
 21
8539.0932794416
 31
0.0
  0
LINE
  5
20C
330
1F
100
AcDbEntity
  8
0
  6
Continuous
 62
     7
370
    15
100
AcDbLine
 10
11911.103183315
 20
8539.0439975762
 30
0.0
 11
11911.103183315
 21
8539.0932794416
 31
0.0
  0
LINE
  5
20D
330
1F
100
AcDbEntity
  8
0
  6
Continuous
 62
     7
370
    15
100
AcDbLine
 10
11911.103183315
 20
8509.1665444651
 30
0.0
 11
8911.103183315
 21
8509.1665444651
 31
0.0
  0
LINE
  5
20E
330
1F
100
AcDbEntity
  8
0
  6
Continuous
 62
     7
370
    15
100
AcDbLine
 10
8911.103183315
 20
8509.1665444651
 30
0.0
 11
8911.103183315
 21
8509.2085927481
 31
0.0
  0
LINE
  5
20F
330
1F
100
AcDbEntity
  8
0
  6
Continuous
 62
     7
370
    15
100
AcDbLine
 10
11911.103183315
 20
8509.1665444651
 30
0.0
 11
11911.103183315
 21
8509.2085927481
 31
0.0
  0
LINE
  5
210
330
1F
100
AcDbEntity
  8
0
  6
Continuous
 62
     7
370
    15
100
AcDbLine
 10
11911.103183315
 20
8539.1229262331
 30
0.0
 11
8911.103183315
 21
8539.1229262331
 31
0.0
  0
LINE
  5
211
330
1F
100
AcDbEntity
  8
0
  6
Continuous
 62
     7
370
    15
100
AcDbLine
 10
8911.103183315
 20
8539.0932794416
 30
0.0
 11
8911.103183315
 21
8539.1229262331
 31
0.0
  0
LINE
  5
212
330
1F
100
AcDbEntity
  8
0
  6
Continuous
 62
     7
370
    15
100
AcDbLine
 10
11911.103183315
 20
8539.0932794416
 30
0.0
 11
11911.103183315
 21
8539.1229262331
 31
0.0
  0
LINE
  5
213
330
1F
100
AcDbEntity
  8
0
  6
Continuous
 62
     7
370
    15
100
AcDbLine
 10
11911.103183315
 20
8509.1412590572
 30
0.0
 11
8911.103183315
 21
8509.1412590572
 31
0.0
  0
LINE
  5
214
330
1F
100
AcDbEntity
  8
0
  6
Continuous
 62
     7
370
    15
100
AcDbLine
 10
8911.103183315
 20
8509.1412590572
 30
0.0
 11
8911.103183315
 21
8509.1665444651
 31
0.0
  0
LINE
  5
215
330
1F
100
AcDbEntity
  8
0
  6
Continuous
 62
     7
370
    15
100
AcDbLine
 10
11911.103183315
 20
8509.1412590572
 30
0.0
 11
11911.103183315
 21
8509.1665444651
 31
0.0
  0
LINE
  5
216
330
1F
100
AcDbEntity
  8
0
  6
Continuous
 62
     7
370
    15
100
AcDbLine
 10
8911.103183315
 20
8539.1229262331
 30
0.0
 11
8911.103183315
 21
8539.1328215355
 31
0.0
  0
LINE
  5
217
330
1F
100
AcDbEntity
  8
0
  6
Continuous
 62
     7
370
    15
100
AcDbLine
 10
11911.103183315
 20
8539.1229262331
 30
0.0
 11
11911.103183315
 21
8539.1328215355
 31
0.0
  0
LINE
  5
218
330
1F
100
AcDbEntity
  8
0
  6
Continuous
 62
     7
370
    15
100
AcDbLine
 10
8911.103183315
 20
8509.1328212747
 30
0.0
 11
8911.103183315
 21
8509.1412590572
 31
0.0
  0
LINE
  5
219
330
1F
100
AcDbEntity
  8
0
  6
Continuous
 62
     7
370
    15
100
AcDbLine
 10
11911.103183315
 20
8509.1328212747
 30
0.0
 11
11911.103183315
 21
8509.1412590572
 31
0.0
  0
LINE
  5
21A
330
1F
100
AcDbEntity
  8
0
  6
Continuous
 62
     7
370
    15
100
AcDbLine
 10
9849.9355306851
 20
4067.4422223651
 30
0.0
 11
11250.0216974753
 21
5433.9692427779
 31
0.0
  0
ARC
  5
21B
330
1F
100
AcDbEntity
  8
0
  6
Continuous
 62
     7
370
    15
100
AcDbCircle
 10
9839.0841297339
 20
4086.9971998891
 30
0.0
 40
4.884346883131326
100
AcDbArc
 50
78.0331534665
 51
81.3902959859
  0
ARC
  5
21C
330
1F
100
AcDbEntity
  8
0
  6
Continuous
 62
     7
370
    15
100
AcDbCircle
 10
9839.0062065194
 20
4086.6454865942
 30
0.0
 40
5.244574735193433
100
AcDbArc
 50
71.5939106442
 51
77.9970630384
  0
ARC
  5
21D
330
1F
100
AcDbEntity
  8
0
  6
Continuous
 62
     7
370
    15
100
AcDbCircle
 10
9838.8988621048
 20
4086.3114215163
 30
0.0
 40
5.595445027648374
100
AcDbArc
 50
68.5646043113
 51
71.6310610642
  0
ARC
  5
21E
330
1F
100
AcDbEntity
  8
0
  6
Continuous
 62
     7
370
    15
100
AcDbCircle
 10
9838.8186185011
 20
4086.1066491603
 30
0.0
 40
5.815378505050202
100
AcDbArc
 50
65.5773236295
 51
68.5659962023
  0
ARC
  5
21F
330
1F
100
AcDbEntity
  8
0
  6
Continuous
 62
     7
370
    15
100
AcDbCircle
 10
9838.7337950074
 20
4085.9195546355
 30
0.0
 40
6.020803361366921
100
AcDbArc
 50
62.6583271373
 51
65.5784989852
  0
LINE
  5
220
330
1F
100
AcDbEntity
  8
0
  6
Continuous
 62
     7
370
    15
100
AcDbLine
 10
9841.4991244022
 20
4091.2677343683
 30
0.0
 11
9843.2497731862
 21
4090.3628453204
 31
0.0
  0
ARC
  5
221
330
1F
100
AcDbEntity
  8
0
  6
Continuous
 62
     7
370
    15
100
AcDbCircle
 10
9846.0409850921
 20
4095.7625856886
 30
0.0
 40
6.078491584820171
100
AcDbArc
 50
242.6648364933
 51
243.9006525033
  0
ARC
  5
222
330
1F
100
AcDbEntity
  8
0
  6
Continuous
 62
     7
370
    15
100
AcDbCircle
 10
9846.0028065058
 20
4095.6846787301
 30
0.0
 40
5.991732732358074
100
AcDbArc
 50
243.9007681008
 51
245.1487643323
  0
LINE
  5
223
330
1F
100
AcDbEntity
  8
0
  6
Continuous
 62
     7
370
    15
100
AcDbLine
 10
9843.4846988732
 20
4090.2477682943
 30
0.0
 11
9844.9627550466
 21
4089.5632388449
 31
0.0
  0
ARC
  5
224
330
1F
100
AcDbEntity
  8
0
  6
Continuous
 62
     7
370
    15
100
AcDbCircle
 10
9842.4184137214
 20
4084.0714921224
 30
0.0
 40
6.052516405899094
100
AcDbArc
 50
62.1478547306
 51
65.1415811376
  0
ARC
  5
225
330
1F
100
AcDbEntity
  8
0
  6
Continuous
 62
     7
370
    15
100
AcDbCircle
 10
9842.3310023429
 20
4083.9059104962
 30
0.0
 40
6.239754272879779
100
AcDbArc
 50
59.2150697175
 51
62.1485252495
  0
ARC
  5
226
330
1F
100
AcDbEntity
  8
0
  6
Continuous
 62
     7
370
    15
100
AcDbCircle
 10
9842.2484036998
 20
4083.7670482087
 30
0.0
 40
6.401325490902261
100
AcDbArc
 50
56.3321675569
 51
59.2160724156
  0
ARC
  5
227
330
1F
100
AcDbEntity
  8
0
  6
Continuous
 62
     7
370
    15
100
AcDbCircle
 10
9842.1744543402
 20
4083.6559011906
 30
0.0
 40
6.534825162676341
100
AcDbArc
 50
53.4883258646
 51
56.33279777
  0
ARC
  5
228
330
1F
100
AcDbEntity
  8
0
  6
Continuous
 62
     7
370
    15
100
AcDbCircle
 10
9842.1144271607
 20
4083.5746132986
 30
0.0
 40
6.635874505407322
100
AcDbArc
 50
50.6736768703
 51
53.4893552338
  0
ARC
  5
229
330
1F
100
AcDbEntity
  8
0
  6
Continuous
 62
     7
370
    15
100
AcDbCircle
 10
9842.0707510009
 20
4083.5210825455
 30
0.0
 40
6.704962343791149
100
AcDbArc
 50
47.8786192014
 51
50.6748623331
  0
ARC
  5
22A
330
1F
100
AcDbEntity
  8
0
  6
Continuous
 62
     7
370
    15
100
AcDbCircle
 10
9842.0476051494
 20
4083.4953440796
 30
0.0
 40
6.739577226335999
100
AcDbArc
 50
45.092880065
 51
47.8794268939
  0
ARC
  5
22B
330
1F
100
AcDbEntity
  8
0
  6
Continuous
 62
     7
370
    15
100
AcDbCircle
 10
9842.0501624985
 20
4083.4977303533
 30
0.0
 40
6.736081759043581
100
AcDbArc
 50
42.3062148778
 51
45.0939571983
  0
ARC
  5
22C
330
1F
100
AcDbEntity
  8
0
  6
Continuous
 62
     7
370
    15
100
AcDbCircle
 10
9799.1434455271
 20
4044.4478616811
 30
0.0
 40
64.75227436545035
100
AcDbArc
 50
41.5155419954
 51
42.3057252646
  0
ARC
  5
22D
330
1F
100
AcDbEntity
  8
0
  6
Continuous
 62
     7
370
    15
100
AcDbCircle
 10
9799.2366348146
 20
4044.5306125929
 30
0.0
 40
64.62764724532883
100
AcDbArc
 50
40.7241907316
 51
41.5153701174
  0
ARC
  5
22E
330
1F
100
AcDbEntity
  8
0
  6
Continuous
 62
     7
370
    15
100
AcDbCircle
 10
9799.368353878
 20
4044.6440128459
 30
0.0
 40
64.45383835892376
100
AcDbArc
 50
39.9315143578
 51
40.724185886
  0
ARC
  5
22F
330
1F
100
AcDbEntity
  8
0
  6
Continuous
 62
     7
370
    15
100
AcDbCircle
 10
9799.5200173374
 20
4044.7708257639
 30
0.0
 40
64.2561433674785
100
AcDbArc
 50
39.1372532944
 51
39.9316095504
  0
ARC
  5
230
330
1F
100
AcDbEntity
  8
0
  6
Continuous
 62
     7
370
    15
100
AcDbCircle
 10
9799.6827162509
 20
4044.9027759365
 30
0.0
 40
64.04666386080382
100
AcDbArc
 50
38.3414765123
 51
39.1375637306
  0
ARC
  5
231
330
1F
100
AcDbEntity
  8
0
  6
Continuous
 62
     7
370
    15
100
AcDbCircle
 10
9799.8554133061
 20
4045.0392114048
 30
0.0
 40
63.82657548094951
100
AcDbArc
 50
37.5437337811
 51
38.3415860331
  0
ARC
  5
232
330
1F
100
AcDbEntity
  8
0
  6
Continuous
 62
     7
370
    15
100
AcDbCircle
 10
9800.0589074515
 20
4045.195554671
 30
0.0
 40
63.5699569265091
100
AcDbArc
 50
36.7437906473
 51
37.5437696626
  0
ARC
  5
233
330
1F
100
AcDbEntity
  8
0
  6
Continuous
 62
     7
370
    15
100
AcDbCircle
 10
9800.2915649384
 20
4045.3692321404
 30
0.0
 40
63.27962372235508
100
AcDbArc
 50
35.941362224
 51
36.7438028698
  0
ARC
  5
234
330
1F
100
AcDbEntity
  8
0
  6
Continuous
 62
     7
370
    15
100
AcDbCircle
 10
9846.2748194872
 20
4078.7069557557
 30
0.0
 40
6.482937984235446
100
AcDbArc
 50
32.8939018228
 51
35.9357672378
  0
ARC
  5
235
330
1F
100
AcDbEntity
  8
0
  6
Continuous
 62
     7
370
    15
100
AcDbCircle
 10
9846.4051856896
 20
4078.7910450541
 30
0.0
 40
6.32780475421415
100
AcDbArc
 50
29.7920662572
 51
32.8956406121
  0
ARC
  5
236
330
1F
100
AcDbEntity
  8
0
  6
Continuous
 62
     7
370
    15
100
AcDbCircle
 10
9846.5670012195
 20
4078.8835257359
 30
0.0
 40
6.141426317143408
100
AcDbArc
 50
26.6273631974
 51
29.7933794269
  0
ARC
  5
237
330
1F
100
AcDbEntity
  8
0
  6
Continuous
 62
     7
370
    15
100
AcDbCircle
 10
9846.7573108528
 20
4078.9787737922
 30
0.0
 40
5.92861201767313
100
AcDbArc
 50
23.387440927
 51
26.6287939959
  0
ARC
  5
238
330
1F
100
AcDbEntity
  8
0
  6
Continuous
 62
     7
370
    15
100
AcDbCircle
 10
9846.9723024221
 20
4079.0716007178
 30
0.0
 40
5.694436458285631
100
AcDbArc
 50
20.0591924119
 51
23.3888473259
  0
ARC
  5
239
330
1F
100
AcDbEntity
  8
0
  6
Continuous
 62
     7
370
    15
100
AcDbCircle
 10
9847.2059454822
 20
4079.1568021447
 30
0.0
 40
5.445743170630016
100
AcDbArc
 50
16.6302670532
 51
20.0602908936
  0
ARC
  5
23A
330
1F
100
AcDbEntity
  8
0
  6
Continuous
 62
     7
370
    15
100
AcDbCircle
 10
9847.4558254404
 20
4079.2313773786
 30
0.0
 40
5.184972283819901
100
AcDbArc
 50
13.0867274433
 51
16.6309126356
  0
ARC
  5
23B
330
1F
100
AcDbEntity
  8
0
  6
Continuous
 62
     7
370
    15
100
AcDbCircle
 10
9847.714351717
 20
4079.2913911405
 30
0.0
 40
4.919571680461773
100
AcDbArc
 50
9.4170861197
 51
13.0876810214
  0
ARC
  5
23C
330
1F
100
AcDbEntity
  8
0
  6
Continuous
 62
     7
370
    15
100
AcDbCircle
 10
9884.5044621633
 20
4085.3840661865
 30
0.0
 40
32.37161934745414
100
AcDbArc
 50
189.4010908834
 51
190.2703756259
  0
ARC
  5
23D
330
1F
100
AcDbEntity
  8
0
  6
Continuous
 62
     7
370
    15
100
AcDbCircle
 10
9884.9292643236
 20
4085.4611621083
 30
0.0
 40
32.8033607538517
100
AcDbArc
 50
190.2705872939
 51
191.1320963651
  0
ARC
  5
23E
330
1F
100
AcDbEntity
  8
0
  6
Continuous
 62
     7
370
    15
100
AcDbCircle
 10
9885.3262569842
 20
4085.5394525466
 30
0.0
 40
33.2079995273135
100
AcDbArc
 50
191.1323885576
 51
191.986995213
  0
ARC
  5
23F
330
1F
100
AcDbEntity
  8
0
  6
Continuous
 62
     7
370
    15
100
AcDbCircle
 10
9885.7312766926
 20
4085.6253888004
 30
0.0
 40
33.62203575855886
100
AcDbArc
 50
191.9868997563
 51
192.8345028047
  0
ARC
  5
240
330
1F
100
AcDbEntity
  8
0
  6
Continuous
 62
     7
370
    15
100
AcDbCircle
 10
9886.158156473
 20
4085.7227933803
 30
0.0
 40
34.0598873066771
100
AcDbArc
 50
192.8347480207
 51
193.674898627
  0
ARC
  5
241
330
1F
100
AcDbEntity
  8
0
  6
Continuous
 62
     7
370
    15
100
AcDbCircle
 10
9886.5498275354
 20
4085.8182891959
 30
0.0
 40
34.46303198926763
100
AcDbArc
 50
193.6752192384
 51
194.5089105229
  0
ARC
  5
242
330
1F
100
AcDbEntity
  8
0
  6
Continuous
 62
     7
370
    15
100
AcDbCircle
 10
9886.9501891238
 20
4085.922043164
 30
0.0
 40
34.87661906282641
100
AcDbArc
 50
194.5091443004
 51
195.3362416359
  0
ARC
  5
243
330
1F
100
AcDbEntity
  8
0
  6
Continuous
 62
     7
370
    15
100
AcDbCircle
 10
9887.3320220842
 20
4086.0266405621
 30
0.0
 40
35.27251931800337
100
AcDbArc
 50
195.3360537726
 51
196.1570814664
  0
ARC
  5
244
330
1F
100
AcDbEntity
  8
0
  6
Continuous
 62
     7
370
    15
100
AcDbCircle
 10
9848.4828189745
 20
4074.7706067598
 30
0.0
 40
5.174469243877957
100
AcDbArc
 50
13.3004922276
 51
16.1660908764
  0
ARC
  5
245
330
1F
100
AcDbEntity
  8
0
  6
Continuous
 62
     7
370
    15
100
AcDbCircle
 10
9848.6903622242
 20
4074.8195774243
 30
0.0
 40
4.961226851138114
100
AcDbArc
 50
10.3545467656
 51
13.301530294
  0
ARC
  5
246
330
1F
100
AcDbEntity
  8
0
  6
Continuous
 62
     7
370
    15
100
AcDbCircle
 10
9848.9008775045
 20
4074.8580281434
 30
0.0
 40
4.747228858533048
100
AcDbArc
 50
7.3198707342
 51
10.3547065837
  0
ARC
  5
247
330
1F
100
AcDbEntity
  8
0
  6
Continuous
 62
     7
370
    15
100
AcDbCircle
 10
9849.1118762869
 20
4074.8850754402
 30
0.0
 40
4.534503591695224
100
AcDbArc
 50
4.1913107349
 51
7.3205807179
  0
ARC
  5
248
330
1F
100
AcDbEntity
  8
0
  6
Continuous
 62
     7
370
    15
100
AcDbCircle
 10
9849.3180107976
 20
4074.9001056245
 30
0.0
 40
4.327821863124629
100
AcDbArc
 50
0.9641234945
 51
4.1923136505
  0
ARC
  5
249
330
1F
100
AcDbEntity
  8
0
  6
Continuous
 62
     7
370
    15
100
AcDbCircle
 10
9849.5165707029
 20
4074.9033828084
 30
0.0
 40
4.129234926042378
100
AcDbArc
 50
357.6341829945
 51
0.9650159143
  0
ARC
  5
24A
330
1F
100
AcDbEntity
  8
0
  6
Continuous
 62
     7
370
    15
100
AcDbCircle
 10
9849.7059860716
 20
4074.8954902934
 30
0.0
 40
3.939655209282111
100
AcDbArc
 50
354.1981109342
 51
357.6351545471
  0
ARC
  5
24B
330
1F
100
AcDbEntity
  8
0
  6
Continuous
 62
     7
370
    15
100
AcDbCircle
 10
9849.8809566126
 20
4074.8776723445
 30
0.0
 40
3.763779776275184
100
AcDbArc
 50
350.6557678927
 51
354.1987055408
  0
LINE
  5
24C
330
1F
100
AcDbEntity
  8
0
  6
Continuous
 62
     7
370
    15
100
AcDbLine
 10
9853.5947935336
 20
4074.2665639022
 30
0.0
 11
9853.2822272876
 21
4072.3698179269
 31
0.0
  0
ARC
  5
24D
330
1F
100
AcDbEntity
  8
0
  6
Continuous
 62
     7
370
    15
100
AcDbCircle
 10
9849.7222712399
 20
4072.9557891667
 30
0.0
 40
3.607859386894695
100
AcDbArc
 50
347.3566644336
 51
350.6528884601
  0
ARC
  5
24E
330
1F
100
AcDbEntity
  8
0
  6
Continuous
 62
     7
370
    15
100
AcDbCircle
 10
9849.8549176738
 20
4072.9260442605
 30
0.0
 40
3.47191882716855
100
AcDbArc
 50
343.974660979
 51
347.3564962893
  0
ARC
  5
24F
330
1F
100
AcDbEntity
  8
0
  6
Continuous
 62
     7
370
    15
100
AcDbCircle
 10
9849.9719634737
 20
4072.8924481039
 30
0.0
 40
3.350146824924399
100
AcDbArc
 50
340.5111691376
 51
343.9742958432
  0
ARC
  5
250
330
1F
100
AcDbEntity
  8
0
  6
Continuous
 62
     7
370
    15
100
AcDbCircle
 10
9850.0730875056
 20
4072.8567616902
 30
0.0
 40
3.242910727744436
100
AcDbArc
 50
336.9707711771
 51
340.5094818982
  0
ARC
  5
251
330
1F
100
AcDbEntity
  8
0
  6
Continuous
 62
     7
370
    15
100
AcDbCircle
 10
9850.1600035543
 20
4072.8199237172
 30
0.0
 40
3.14851038034672
100
AcDbArc
 50
333.359509168
 51
336.9689617738
  0
ARC
  5
252
330
1F
100
AcDbEntity
  8
0
  6
Continuous
 62
     7
370
    15
100
AcDbCircle
 10
9850.2299231966
 20
4072.7849209841
 30
0.0
 40
3.070318670882543
100
AcDbArc
 50
329.6878044724
 51
333.3583041932
  0
ARC
  5
253
330
1F
100
AcDbEntity
  8
0
  6
Continuous
 62
     7
370
    15
100
AcDbCircle
 10
9850.2835736903
 20
4072.7536655639
 30
0.0
 40
3.008227870935686
100
AcDbArc
 50
325.9652809168
 51
329.6859839933
  0
ARC
  5
254
330
1F
100
AcDbEntity
  8
0
  6
Continuous
 62
     7
370
    15
100
AcDbCircle
 10
9850.3229984568
 20
4072.7271238982
 30
0.0
 40
2.960701382142425
100
AcDbArc
 50
322.2030215508
 51
325.9639105793
  0
LINE
  5
255
330
1F
100
AcDbEntity
  8
0
  6
Continuous
 62
     7
370
    15
100
AcDbLine
 10
9852.6625071874
 20
4070.9126125111
 30
0.0
 11
9850.2035614549
 21
4067.7426133816
 31
0.0
  0
ARC
  5
256
330
1F
100
AcDbEntity
  8
0
  6
Continuous
 62
     7
370
    15
100
AcDbCircle
 10
9847.8888256414
 20
4069.5379360538
 30
0.0
 40
2.929366037917264
100
AcDbArc
 50
317.5968983177
 51
322.2026345955
  0
ARC
  5
257
330
1F
100
AcDbEntity
  8
0
  6
Continuous
 62
     7
370
    15
100
AcDbCircle
 10
9847.8983809036
 20
4069.5294042321
 30
0.0
 40
2.916556887028334
100
AcDbArc
 50
312.9746580729
 51
317.5940800399
  0
ARC
  5
258
330
1F
100
AcDbEntity
  8
0
  6
Continuous
 62
     7
370
    15
100
AcDbCircle
 10
9847.8906352454
 20
4069.5378846528
 30
0.0
 40
2.928041653973805
100
AcDbArc
 50
308.3648732345
 51
312.9724324624
  0
ARC
  5
259
330
1F
100
AcDbEntity
  8
0
  6
Continuous
 62
     7
370
    15
100
AcDbCircle
 10
9847.8686307183
 20
4069.5657837077
 30
0.0
 40
2.963574069706609
100
AcDbArc
 50
303.7926886686
 51
308.3636581735
  0
ARC
  5
25A
330
1F
100
AcDbEntity
  8
0
  6
Continuous
 62
     7
370
    15
100
AcDbCircle
 10
9847.8346923385
 20
4069.6166156786
 30
0.0
 40
3.024694429818438
100
AcDbArc
 50
299.2827093735
 51
303.7914093444
  0
ARC
  5
25B
330
1F
100
AcDbEntity
  8
0
  6
Continuous
 62
     7
370
    15
100
AcDbCircle
 10
9847.7938469255
 20
4069.6896595622
 30
0.0
 40
3.108382820589729
100
AcDbArc
 50
294.8534415904
 51
299.2808456491
  0
ARC
  5
25C
330
1F
100
AcDbEntity
  8
0
  6
Continuous
 62
     7
370
    15
100
AcDbCircle
 10
9847.7489505683
 20
4069.7867593592
 30
0.0
 40
3.215359679703161
100
AcDbArc
 50
290.5236514737
 51
294.8521480643
  0
ARC
  5
25D
330
1F
100
AcDbEntity
  8
0
  6
Continuous
 62
     7
370
    15
100
AcDbCircle
 10
9847.7036934541
 20
4069.908000975
 30
0.0
 40
3.344772667632891
100
AcDbArc
 50
286.3057507965
 51
290.5215607687
  0
LINE
  5
25E
330
1F
100
AcDbEntity
  8
0
  6
Continuous
 62
     7
370
    15
100
AcDbLine
 10
9848.642782008
 20
4066.6977647086
 30
0.0
 11
9845.6774811151
 21
4065.8295214548
 31
0.0
  0
ARC
  5
25F
330
1F
100
AcDbEntity
  8
0
  6
Continuous
 62
     7
370
    15
100
AcDbCircle
 10
9844.6918588943
 20
4069.2009028534
 30
0.0
 40
3.51250106009423
100
AcDbArc
 50
281.263427084
 51
286.2962629578
  0
ARC
  5
260
330
1F
100
AcDbEntity
  8
0
  6
Continuous
 62
     7
370
    15
100
AcDbCircle
 10
9844.6501236646
 20
4069.4107354595
 30
0.0
 40
3.726443924663332
100
AcDbArc
 50
276.4244637533
 51
281.2626099007
  0
ARC
  5
261
330
1F
100
AcDbEntity
  8
0
  6
Continuous
 62
     7
370
    15
100
AcDbCircle
 10
9844.6233617065
 20
4069.6488312387
 30
0.0
 40
3.96603900056074
100
AcDbArc
 50
271.7826367127
 51
276.4237788757
  0
ARC
  5
262
330
1F
100
AcDbEntity
  8
0
  6
Continuous
 62
     7
370
    15
100
AcDbCircle
 10
9844.6152545918
 20
4069.9090604543
 30
0.0
 40
4.226394468918216
100
AcDbArc
 50
267.3341375264
 51
271.7827453967
  0
LINE
  5
263
330
1F
100
AcDbEntity
  8
0
  6
Continuous
 62
     7
370
    15
100
AcDbLine
 10
9841.4149726642
 20
4065.8258725376
 30
0.0
 11
9844.4186795263
 21
4065.6872399406
 31
0.0
  0
ARC
  5
264
330
1F
100
AcDbEntity
  8
0
  6
Continuous
 62
     7
370
    15
100
AcDbCircle
 10
9841.622121983
 20
4070.2914770157
 30
0.0
 40
4.470406491023015
100
AcDbArc
 50
264.0554916541
 51
267.3440819584
  0
ARC
  5
265
330
1F
100
AcDbEntity
  8
0
  6
Continuous
 62
     7
370
    15
100
AcDbCircle
 10
9841.6448083539
 20
4070.5094885758
 30
0.0
 40
4.689595248926483
100
AcDbArc
 50
260.8703947942
 51
264.0556631139
  0
ARC
  5
266
330
1F
100
AcDbEntity
  8
0
  6
Continuous
 62
     7
370
    15
100
AcDbCircle
 10
9841.6800545405
 20
4070.7290990899
 30
0.0
 40
4.912016177753243
100
AcDbArc
 50
257.7825113873
 51
260.8709258747
  0
ARC
  5
267
330
1F
100
AcDbEntity
  8
0
  6
Continuous
 62
     7
370
    15
100
AcDbCircle
 10
9841.7531940908
 20
4071.0536290664
 30
0.0
 40
5.244674757336195
100
AcDbArc
 50
251.8391055808
 51
257.7518681018
  0
ARC
  5
268
330
1F
100
AcDbEntity
  8
0
  6
Continuous
 62
     7
370
    15
100
AcDbCircle
 10
9841.8514514356
 20
4071.3630816081
 30
0.0
 40
5.569338264205177
100
AcDbArc
 50
249.0304184629
 51
251.8708896369
  0
ARC
  5
269
330
1F
100
AcDbEntity
  8
0
  6
Continuous
 62
     7
370
    15
100
AcDbCircle
 10
9841.9251993522
 20
4071.5557528746
 30
0.0
 40
5.775641353449075
100
AcDbArc
 50
246.2590595508
 51
249.0312921238
  0
ARC
  5
26A
330
1F
100
AcDbEntity
  8
0
  6
Continuous
 62
     7
370
    15
100
AcDbCircle
 10
9842.0022164748
 20
4071.7310403261
 30
0.0
 40
5.967102375307511
100
AcDbArc
 50
243.5469525729
 51
246.2597461934
  0
LINE
  5
26B
330
1F
100
AcDbEntity
  8
0
  6
Continuous
 62
     7
370
    15
100
AcDbLine
 10
9839.3440854802
 20
4066.3886953005
 30
0.0
 11
9836.340378721
 21
4067.8827490024
 31
0.0
  0
ARC
  5
26C
330
1F
100
AcDbEntity
  8
0
  6
Continuous
 62
     7
370
    15
100
AcDbCircle
 10
9839.0892966212
 20
4073.4067632567
 30
0.0
 40
6.170193117252908
100
AcDbArc
 50
240.0870439683
 51
243.5436622346
  0
ARC
  5
26D
330
1F
100
AcDbEntity
  8
0
  6
Continuous
 62
     7
370
    15
100
AcDbCircle
 10
9839.1879716892
 20
4073.578605673
 30
0.0
 40
6.368351030724805
100
AcDbArc
 50
236.7039726125
 51
240.088528921
  0
ARC
  5
26E
330
1F
100
AcDbEntity
  8
0
  6
Continuous
 62
     7
370
    15
100
AcDbCircle
 10
9839.2758255072
 20
4073.7126680274
 30
0.0
 40
6.528635097938665
100
AcDbArc
 50
233.3764521576
 51
236.7054058381
  0
ARC
  5
26F
330
1F
100
AcDbEntity
  8
0
  6
Continuous
 62
     7
370
    15
100
AcDbCircle
 10
9839.3455059116
 20
4073.8067682047
 30
0.0
 40
6.645725481142852
100
AcDbArc
 50
230.0884168727
 51
233.3782828596
  0
LINE
  5
270
330
1F
100
AcDbEntity
  8
0
  6
Continuous
 62
     7
370
    15
100
AcDbLine
 10
9832.1162762392
 20
4071.189314058
 30
0.0
 11
9835.0815771322
 21
4068.7092611146
 31
0.0
  0
ARC
  5
271
330
1F
100
AcDbEntity
  8
0
  6
Continuous
 62
     7
370
    15
100
AcDbCircle
 10
9836.424665976
 20
4076.3403542541
 30
0.0
 40
6.715313635672716
100
AcDbArc
 50
227.4416013253
 51
230.0904983847
  0
ARC
  5
272
330
1F
100
AcDbEntity
  8
0
  6
Continuous
 62
     7
370
    15
100
AcDbCircle
 10
9836.442339083
 20
4076.3596864283
 30
0.0
 40
6.741506543001668
100
AcDbArc
 50
224.7999881144
 51
227.4420886839
  0
ARC
  5
273
330
1F
100
AcDbEntity
  8
0
  6
Continuous
 62
     7
370
    15
100
AcDbCircle
 10
9836.4380527505
 20
4076.3555347764
 30
0.0
 40
6.735539691322152
100
AcDbArc
 50
222.1568700184
 51
224.8006210359
  0
ARC
  5
274
330
1F
100
AcDbEntity
  8
0
  6
Continuous
 62
     7
370
    15
100
AcDbCircle
 10
9836.410347351
 20
4076.3305956585
 30
0.0
 40
6.698263194638647
100
AcDbArc
 50
219.5042457027
 51
222.1577871081
  0
ARC
  5
275
330
1F
100
AcDbEntity
  8
0
  6
Continuous
 62
     7
370
    15
100
AcDbCircle
 10
9836.3571855803
 20
4076.2868808497
 30
0.0
 40
6.629436234705993
100
AcDbArc
 50
216.8331074747
 51
219.5050125077
  0
ARC
  5
276
330
1F
100
AcDbEntity
  8
0
  6
Continuous
 62
     7
370
    15
100
AcDbCircle
 10
9836.2778739166
 20
4076.2276116466
 30
0.0
 40
6.530425292962396
100
AcDbArc
 50
214.1351358228
 51
216.834055556
  0
ARC
  5
277
330
1F
100
AcDbEntity
  8
0
  6
Continuous
 62
     7
370
    15
100
AcDbCircle
 10
9836.1735777307
 20
4076.1570465897
 30
0.0
 40
6.40450028536128
100
AcDbArc
 50
211.4020971599
 51
214.1361879461
  0
ARC
  5
278
330
1F
100
AcDbEntity
  8
0
  6
Continuous
 62
     7
370
    15
100
AcDbCircle
 10
9836.0443889387
 20
4076.0782705927
 30
0.0
 40
6.253188038790236
100
AcDbArc
 50
208.6248828715
 51
211.4027827854
  0
LINE
  5
279
330
1F
100
AcDbEntity
  8
0
  6
Continuous
 62
     7
370
    15
100
AcDbLine
 10
9828.0965510599
 20
4077.5891126026
 30
0.0
 11
9830.5554967923
 21
4073.0825363498
 31
0.0
  0
ARC
  5
27A
330
1F
100
AcDbEntity
  8
0
  6
Continuous
 62
     7
370
    15
100
AcDbCircle
 10
9833.4447695151
 20
4080.5078870081
 30
0.0
 40
6.092838802612658
100
AcDbArc
 50
206.2989008757
 51
208.6233741383
  0
ARC
  5
27B
330
1F
100
AcDbEntity
  8
0
  6
Continuous
 62
     7
370
    15
100
AcDbCircle
 10
9833.305711062
 20
4080.4392276781
 30
0.0
 40
5.937753814400546
100
AcDbArc
 50
203.934968391
 51
206.2994572772
  0
ARC
  5
27C
330
1F
100
AcDbEntity
  8
0
  6
Continuous
 62
     7
370
    15
100
AcDbCircle
 10
9833.1513312933
 20
4080.370702147
 30
0.0
 40
5.76884892571849
100
AcDbArc
 50
201.5245082763
 51
203.9349585733
  0
ARC
  5
27D
330
1F
100
AcDbEntity
  8
0
  6
Continuous
 62
     7
370
    15
100
AcDbCircle
 10
9832.9841951793
 20
4080.3048411805
 30
0.0
 40
5.58920443105243
100
AcDbArc
 50
199.0629961348
 51
201.5250642322
  0
ARC
  5
27E
330
1F
100
AcDbEntity
  8
0
  6
Continuous
 62
     7
370
    15
100
AcDbCircle
 10
9832.8119354136
 20
4080.2453282055
 30
0.0
 40
5.406953996427037
100
AcDbArc
 50
196.5465076484
 51
199.0631238587
  0
ARC
  5
27F
330
1F
100
AcDbEntity
  8
0
  6
Continuous
 62
     7
370
    15
100
AcDbCircle
 10
9832.62797082
 20
4080.1906360499
 30
0.0
 40
5.215031610303554
100
AcDbArc
 50
193.9678839453
 51
196.5461191041
  0
ARC
  5
280
330
1F
100
AcDbEntity
  8
0
  6
Continuous
 62
     7
370
    15
100
AcDbCircle
 10
9832.4396904935
 20
4080.1438408474
 30
0.0
 40
5.021023180027138
100
AcDbArc
 50
191.3239258807
 51
193.9682856278
  0
ARC
  5
281
330
1F
100
AcDbEntity
  8
0
  6
Continuous
 62
     7
370
    15
100
AcDbCircle
 10
9832.2495785943
 20
4080.1058110118
 30
0.0
 40
4.827144865230742
100
AcDbArc
 50
188.6097302339
 51
191.3244011364
  0
LINE
  5
282
330
1F
100
AcDbEntity
  8
0
  6
Continuous
 62
     7
370
    15
100
AcDbLine
 10
9827.1642647136
 20
4081.4498150982
 30
0.0
 11
9827.4768309597
 21
4079.383171706
 31
0.0
  0
ARC
  5
283
330
1F
100
AcDbEntity
  8
0
  6
Continuous
 62
     7
370
    15
100
AcDbCircle
 10
9831.7361969181
 20
4082.1422373226
 30
0.0
 40
4.624068838096746
100
AcDbArc
 50
185.523473712
 51
188.6120368962
  0
ARC
  5
284
330
1F
100
AcDbEntity
  8
0
  6
Continuous
 62
     7
370
    15
100
AcDbCircle
 10
9831.5267679484
 20
4082.1220624251
 30
0.0
 40
4.413670374142662
100
AcDbArc
 50
182.3381707962
 51
185.5244740583
  0
ARC
  5
285
330
1F
100
AcDbEntity
  8
0
  6
Continuous
 62
     7
370
    15
100
AcDbCircle
 10
9831.3246559456
 20
4082.1139111322
 30
0.0
 40
4.211394091472565
100
AcDbArc
 50
179.0520083007
 51
182.3395469158
  0
ARC
  5
286
330
1F
100
AcDbEntity
  8
0
  6
Continuous
 62
     7
370
    15
100
AcDbCircle
 10
9831.1317625525
 20
4082.1171794258
 30
0.0
 40
4.018473028039088
100
AcDbArc
 50
175.6612709551
 51
179.0530984674
  0
ARC
  5
287
330
1F
100
AcDbEntity
  8
0
  6
Continuous
 62
     7
370
    15
100
AcDbCircle
 10
9830.9501707723
 20
4082.1310048534
 30
0.0
 40
3.836355717781855
100
AcDbArc
 50
172.1636949418
 51
175.6619861659
  0
ARC
  5
288
330
1F
100
AcDbEntity
  8
0
  6
Continuous
 62
     7
370
    15
100
AcDbCircle
 10
9830.7831467125
 20
4082.15400075
 30
0.0
 40
3.667756050759084
100
AcDbArc
 50
168.5593927794
 51
172.1638283031
  0
ARC
  5
289
330
1F
100
AcDbEntity
  8
0
  6
Continuous
 62
     7
370
    15
100
AcDbCircle
 10
9830.6320088216
 20
4082.1845181371
 30
0.0
 40
3.513567957084192
100
AcDbArc
 50
164.8494156222
 51
168.5582924428
  0
ARC
  5
28A
330
1F
100
AcDbEntity
  8
0
  6
Continuous
 62
     7
370
    15
100
AcDbCircle
 10
9830.49719691
 20
4082.2209321252
 30
0.0
 40
3.373924760388821
100
AcDbArc
 50
161.0372129631
 51
164.8479604755
  0
ARC
  5
28B
330
1F
100
AcDbEntity
  8
0
  6
Continuous
 62
     7
370
    15
100
AcDbCircle
 10
9806.1670091833
 20
4090.5855376667
 30
0.0
 40
22.35397184411463
100
AcDbArc
 50
341.025767173
 51
342.1385600243
  0
ARC
  5
28C
330
1F
100
AcDbEntity
  8
0
  6
Continuous
 62
     7
370
    15
100
AcDbCircle
 10
9805.9214090049
 20
4090.6647745215
 30
0.0
 40
22.61203757049257
100
AcDbArc
 50
342.1383365743
 51
343.2424656874
  0
ARC
  5
28D
330
1F
100
AcDbEntity
  8
0
  6
Continuous
 62
     7
370
    15
100
AcDbCircle
 10
9805.6676358398
 20
4090.7409622505
 30
0.0
 40
22.87700047954396
100
AcDbArc
 50
343.2430069983
 51
344.3384630464
  0
ARC
  5
28E
330
1F
100
AcDbEntity
  8
0
  6
Continuous
 62
     7
370
    15
100
AcDbCircle
 10
9805.4114339804
 20
4090.8125442062
 30
0.0
 40
23.14301422537465
100
AcDbArc
 50
344.3390532663
 51
345.4261026387
  0
ARC
  5
28F
330
1F
100
AcDbEntity
  8
0
  6
Continuous
 62
     7
370
    15
100
AcDbCircle
 10
9805.1579375058
 20
4090.8783281076
 30
0.0
 40
23.40490727635929
100
AcDbArc
 50
345.4263956588
 51
346.5055304119
  0
ARC
  5
290
330
1F
100
AcDbEntity
  8
0
  6
Continuous
 62
     7
370
    15
100
AcDbCircle
 10
9804.8782631408
 20
4090.9454825917
 30
0.0
 40
23.69253111707231
100
AcDbArc
 50
346.5054383253
 51
347.5757750728
  0
ARC
  5
291
330
1F
100
AcDbEntity
  8
0
  6
Continuous
 62
     7
370
    15
100
AcDbCircle
 10
9804.5827980931
 20
4091.0104104018
 30
0.0
 40
23.99504589219474
100
AcDbArc
 50
347.576160696
 51
348.637347663
  0
ARC
  5
292
330
1F
100
AcDbEntity
  8
0
  6
Continuous
 62
     7
370
    15
100
AcDbCircle
 10
9804.2995138686
 20
4091.0672357657
 30
0.0
 40
24.28397332918322
100
AcDbArc
 50
348.6375850333
 51
349.6905298402
  0
ARC
  5
293
330
1F
100
AcDbEntity
  8
0
  6
Continuous
 62
     7
370
    15
100
AcDbCircle
 10
9831.6763699406
 20
4086.0885129019
 30
0.0
 40
3.541912799088159
100
AcDbArc
 50
165.1395481482
 51
169.7091455959
  0
ARC
  5
294
330
1F
100
AcDbEntity
  8
0
  6
Continuous
 62
     7
370
    15
100
AcDbCircle
 10
9831.5086091872
 20
4086.1329443003
 30
0.0
 40
3.368367955026414
100
AcDbArc
 50
160.4130012472
 51
165.1381948019
  0
ARC
  5
295
330
1F
100
AcDbEntity
  8
0
  6
Continuous
 62
     7
370
    15
100
AcDbCircle
 10
9831.3695422625
 20
4086.1822939652
 30
0.0
 40
3.220804469565276
100
AcDbArc
 50
155.5422491319
 51
160.4107506499
  0
ARC
  5
296
330
1F
100
AcDbEntity
  8
0
  6
Continuous
 62
     7
370
    15
100
AcDbCircle
 10
9831.260203774
 20
4086.2318913206
 30
0.0
 40
3.100742871517592
100
AcDbArc
 50
150.5463476991
 51
155.5399998323
  0
ARC
  5
297
330
1F
100
AcDbEntity
  8
0
  6
Continuous
 62
     7
370
    15
100
AcDbCircle
 10
9831.1814072692
 20
4086.2762262179
 30
0.0
 40
3.010330196438948
100
AcDbArc
 50
145.450524978
 51
150.5436642577
  0
ARC
  5
298
330
1F
100
AcDbEntity
  8
0
  6
Continuous
 62
     7
370
    15
100
AcDbCircle
 10
9831.1315334512
 20
4086.3103849759
 30
0.0
 40
2.94988025406867
100
AcDbArc
 50
140.285105925
 51
145.4476132
  0
ARC
  5
299
330
1F
100
AcDbEntity
  8
0
  6
Continuous
 62
     7
370
    15
100
AcDbCircle
 10
9831.1084742156
 20
4086.3293080764
 30
0.0
 40
2.920051071435381
100
AcDbArc
 50
135.0840249053
 51
140.2816167009
  0
ARC
  5
29A
330
1F
100
AcDbEntity
  8
0
  6
Continuous
 62
     7
370
    15
100
AcDbCircle
 10
9831.1089657883
 20
4086.3285765196
 30
0.0
 40
2.920915709851474
100
AcDbArc
 50
129.904684049
 51
135.0806713564
  0
ARC
  5
29B
330
1F
100
AcDbEntity
  8
0
  6
Continuous
 62
     7
370
    15
100
AcDbCircle
 10
9847.3886129649
 20
4066.8492208247
 30
0.0
 40
28.30737280819254
100
AcDbArc
 50
128.5168160046
 51
129.8886475716
  0
ARC
  5
29C
330
1F
100
AcDbEntity
  8
0
  6
Continuous
 62
     7
370
    15
100
AcDbCircle
 10
9847.4502218921
 20
4066.7716521754
 30
0.0
 40
28.40643109953702
100
AcDbArc
 50
127.1479266105
 51
128.5166121994
  0
ARC
  5
29D
330
1F
100
AcDbEntity
  8
0
  6
Continuous
 62
     7
370
    15
100
AcDbCircle
 10
9847.5272021192
 20
4066.66986002
 30
0.0
 40
28.53405392718948
100
AcDbArc
 50
125.7831846756
 51
127.1477049238
  0
ARC
  5
29E
330
1F
100
AcDbEntity
  8
0
  6
Continuous
 62
     7
370
    15
100
AcDbCircle
 10
9847.6106142267
 20
4066.5538220358
 30
0.0
 40
28.67696075067053
100
AcDbArc
 50
124.422830838
 51
125.7828193938
  0
ARC
  5
29F
330
1F
100
AcDbEntity
  8
0
  6
Continuous
 62
     7
370
    15
100
AcDbCircle
 10
9847.6992864824
 20
4066.4242191173
 30
0.0
 40
28.83399473184237
100
AcDbArc
 50
123.0674426205
 51
124.4225938351
  0
ARC
  5
2A0
330
1F
100
AcDbEntity
  8
0
  6
Continuous
 62
     7
370
    15
100
AcDbCircle
 10
9847.800379286
 20
4066.2689654691
 30
0.0
 40
29.01926062234431
100
AcDbArc
 50
121.718097421
 51
123.0674589808
  0
ARC
  5
2A1
330
1F
100
AcDbEntity
  8
0
  6
Continuous
 62
     7
370
    15
100
AcDbCircle
 10
9847.9064008421
 20
4066.0973663178
 30
0.0
 40
29.22097040934755
100
AcDbArc
 50
120.3748518916
 51
121.7180388261
  0
ARC
  5
2A2
330
1F
100
AcDbEntity
  8
0
  6
Continuous
 62
     7
370
    15
100
AcDbCircle
 10
9848.0202517632
 20
4065.9031927134
 30
0.0
 40
29.44606021237788
100
AcDbArc
 50
119.0385983823
 51
120.3749265545
  0
ARC
  5
2A3
330
1F
100
AcDbEntity
  8
0
  6
Continuous
 62
     7
370
    15
100
AcDbCircle
 10
9835.2395274788
 20
4088.9223298266
 30
0.0
 40
3.116844826544205
100
AcDbArc
 50
114.3669230511
 51
119.0268879646
  0
ARC
  5
2A4
330
1F
100
AcDbEntity
  8
0
  6
Continuous
 62
     7
370
    15
100
AcDbCircle
 10
9835.2867248591
 20
4088.8178727793
 30
0.0
 40
3.231469680255194
100
AcDbArc
 50
109.8157866226
 51
114.3650859378
  0
ARC
  5
2A5
330
1F
100
AcDbEntity
  8
0
  6
Continuous
 62
     7
370
    15
100
AcDbCircle
 10
9835.3340748752
 20
4088.6863030221
 30
0.0
 40
3.371300371006473
100
AcDbArc
 50
105.3924040231
 51
109.8148438372
  0
ARC
  5
2A6
330
1F
100
AcDbEntity
  8
0
  6
Continuous
 62
     7
370
    15
100
AcDbCircle
 10
9835.3772278284
 20
4088.5292471351
 30
0.0
 40
3.534176773793293
100
AcDbArc
 50
101.1057892586
 51
105.3910747363
  0
ARC
  5
2A7
330
1F
100
AcDbEntity
  8
0
  6
Continuous
 62
     7
370
    15
100
AcDbCircle
 10
9835.4124295031
 20
4088.3496058569
 30
0.0
 40
3.717234533205495
100
AcDbArc
 50
96.9612914843
 51
101.1048606936
  0
ARC
  5
2A8
330
1F
100
AcDbEntity
  8
0
  6
Continuous
 62
     7
370
    15
100
AcDbCircle
 10
9835.4369059307
 20
4088.1493005739
 30
0.0
 40
3.91902973024111
100
AcDbArc
 50
92.9612884586
 51
96.9615727961
  0
ARC
  5
2A9
330
1F
100
AcDbEntity
  8
0
  6
Continuous
 62
     7
370
    15
100
AcDbCircle
 10
9835.4482582889
 20
4087.9308663213
 30
0.0
 40
4.137758777513151
100
AcDbArc
 50
89.1040318249
 51
92.9620170577
  0
ARC
  5
2AA
330
1F
100
AcDbEntity
  8
0
  6
Continuous
 62
     7
370
    15
100
AcDbCircle
 10
9835.4446963672
 20
4087.6987762509
 30
0.0
 40
4.369876169686102
100
AcDbArc
 50
85.3849061919
 51
89.1049194274
  0
LINE
  5
2AB
330
1F
100
AcDbEntity
  8
0
  6
Continuous
 62
     7
370
    15
100
AcDbLine
 10
9837.274359374
 20
4091.9356047004
 30
0.0
 11
9835.7963032007
 21
4092.0544840433
 31
0.0
  0
ARC
  5
2AC
330
1F
100
AcDbEntity
  8
0
  6
Continuous
 62
     7
370
    15
100
AcDbCircle
 10
9837.6307775477
 20
4096.3651167429
 30
0.0
 40
4.443828400085431
100
AcDbArc
 50
265.3996389059
 51
266.9221694155
  0
ARC
  5
2AD
330
1F
100
AcDbEntity
  8
0
  6
Continuous
 62
     7
370
    15
100
AcDbCircle
 10
9837.6251325294
 20
4096.2602163634
 30
0.0
 40
4.33877624234452
100
AcDbArc
 50
266.9222290713
 51
268.4699925606
  0
LINE
  5
2AE
330
1F
100
AcDbEntity
  8
0
  6
Continuous
 62
     7
370
    15
100
AcDbLine
 10
9839.2599338451
 20
4091.8762983817
 30
0.0
 11
9837.5092850611
 21
4091.9229869891
 31
0.0
  0
ARC
  5
2AF
330
1F
100
AcDbEntity
  8
0
  6
Continuous
 62
     7
370
    15
100
AcDbCircle
 10
9839.1412076934
 20
4087.4703217465
 30
0.0
 40
4.407575978735344
100
AcDbArc
 50
84.8612472869
 51
88.4564462758
  0
ARC
  5
2B0
330
1F
100
AcDbEntity
  8
0
  6
Continuous
 62
     7
370
    15
100
AcDbCircle
 10
9839.1202196525
 20
4087.2361014937
 30
0.0
 40
4.642734689707452
100
AcDbArc
 50
81.3892961553
 51
84.8621721989
  0
LINE
  5
2B1
330
1F
100
AcDbEntity
  8
0
  6
Continuous
 62
     7
370
    15
100
AcDbLine
 10
11247.1180530411
 20
5454.5587584766
 30
0.0
 11
9847.0318862509
 21
4088.0317380638
 31
0.0
  0
ARC
  5
2B2
330
1F
100
AcDbEntity
  8
0
  6
Continuous
 62
     7
370
    15
100
AcDbCircle
 10
11199.2296123246
 20
5410.9748821005
 30
0.0
 40
64.75227435560646
100
AcDbArc
 50
41.5155419953
 51
42.3057252646
  0
LINE
  5
2B3
330
1F
100
AcDbEntity
  8
0
  6
Continuous
 62
     7
370
    15
100
AcDbLine
 10
11247.7145581729
 20
5453.8941908124
 30
0.0
 11
9847.6283913827
 21
4087.3671703996
 31
0.0
  0
ARC
  5
2B4
330
1F
100
AcDbEntity
  8
0
  6
Continuous
 62
     7
370
    15
100
AcDbCircle
 10
11199.3228016281
 20
5411.0576330261
 30
0.0
 40
64.62764721438666
100
AcDbArc
 50
40.7241907314
 51
41.5153701176
  0
LINE
  5
2B5
330
1F
100
AcDbEntity
  8
0
  6
Continuous
 62
     7
370
    15
100
AcDbLine
 10
11248.3014423272
 20
5453.221901545
 30
0.0
 11
9848.2152755371
 21
4086.6948811322
 31
0.0
  0
ARC
  5
2B6
330
1F
100
AcDbEntity
  8
0
  6
Continuous
 62
     7
370
    15
100
AcDbCircle
 10
11199.4545206683
 20
5411.1710332588
 30
0.0
 40
64.45383835878005
100
AcDbArc
 50
39.9315143578
 51
40.724185886
  0
LINE
  5
2B7
330
1F
100
AcDbEntity
  8
0
  6
Continuous
 62
     7
370
    15
100
AcDbLine
 10
11248.8785115279
 20
5452.5421150273
 30
0.0
 11
9848.7923447377
 21
4086.0150946144
 31
0.0
  0
ARC
  5
2B8
330
1F
100
AcDbEntity
  8
0
  6
Continuous
 62
     7
370
    15
100
AcDbCircle
 10
11199.606184122
 20
5411.2978461721
 30
0.0
 40
64.25614337465058
100
AcDbArc
 50
39.1372532944
 51
39.9316095503
  0
LINE
  5
2B9
330
1F
100
AcDbEntity
  8
0
  6
Continuous
 62
     7
370
    15
100
AcDbLine
 10
11249.4455738576
 20
5451.8550550525
 30
0.0
 11
9849.3594070674
 21
4085.3280346397
 31
0.0
  0
LINE
  5
2BA
330
1F
100
AcDbEntity
  8
0
  6
Continuous
 62
     7
370
    15
100
AcDbLine
 10
11246.8916411016
 20
5454.7956843253
 30
0.0
 11
9846.8054743114
 21
4088.2686639124
 31
0.0
  0
ARC
  5
2BB
330
1F
100
AcDbEntity
  8
0
  6
Continuous
 62
     7
370
    15
100
AcDbCircle
 10
11242.1363292919
 20
5450.0247507692
 30
0.0
 40
6.736081754503102
100
AcDbArc
 50
42.306214877
 51
45.0939571992
  0
LINE
  5
2BC
330
1F
100
AcDbEntity
  8
0
  6
Continuous
 62
     7
370
    15
100
AcDbLine
 10
11246.6539591802
 20
5455.0213452384
 30
0.0
 11
9846.56779239
 21
4088.4943248256
 31
0.0
  0
ARC
  5
2BD
330
1F
100
AcDbEntity
  8
0
  6
Continuous
 62
     7
370
    15
100
AcDbCircle
 10
11242.1337719401
 20
5450.022364493
 30
0.0
 40
6.739577225501523
100
AcDbArc
 50
45.0928800647
 51
47.8794268939
  0
LINE
  5
2BE
330
1F
100
AcDbEntity
  8
0
  6
Continuous
 62
     7
370
    15
100
AcDbLine
 10
11246.4059886899
 20
5455.2348087076
 30
0.0
 11
9846.3198218997
 21
4088.7077882947
 31
0.0
  0
ARC
  5
2BF
330
1F
100
AcDbEntity
  8
0
  6
Continuous
 62
     7
370
    15
100
AcDbCircle
 10
11242.1569177909
 20
5450.0481029581
 30
0.0
 40
6.70496234411995
100
AcDbArc
 50
47.8786192016
 51
50.6748623331
  0
ARC
  5
2C0
330
1F
100
AcDbEntity
  8
0
  6
Continuous
 62
     7
370
    15
100
AcDbCircle
 10
11199.7688830718
 20
5411.4297963741
 30
0.0
 40
64.04666382136233
100
AcDbArc
 50
38.3414765119
 51
39.1375637307
  0
LINE
  5
2C1
330
1F
100
AcDbEntity
  8
0
  6
Continuous
 62
     7
370
    15
100
AcDbLine
 10
11250.0024431652
 20
5451.1609502334
 30
0.0
 11
9849.916276375
 21
4084.6339298206
 31
0.0
  0
LINE
  5
2C2
330
1F
100
AcDbEntity
  8
0
  6
Continuous
 62
     7
370
    15
100
AcDbLine
 10
11246.1487542868
 20
5455.4351935371
 30
0.0
 11
9846.0625874966
 21
4088.9081731243
 31
0.0
  0
ARC
  5
2C3
330
1F
100
AcDbEntity
  8
0
  6
Continuous
 62
     7
370
    15
100
AcDbCircle
 10
11242.2005939514
 20
5450.1016337121
 30
0.0
 40
6.635874504524109
100
AcDbArc
 50
50.6736768701
 51
53.489355234
  0
LINE
  5
2C4
330
1F
100
AcDbEntity
  8
0
  6
Continuous
 62
     7
370
    15
100
AcDbLine
 10
11245.8833197517
 20
5455.6216709639
 30
0.0
 11
9845.7971529615
 21
4089.0946505511
 31
0.0
  0
ARC
  5
2C5
330
1F
100
AcDbEntity
  8
0
  6
Continuous
 62
     7
370
    15
100
AcDbCircle
 10
11242.2606211298
 20
5450.1829216025
 30
0.0
 40
6.534825163839262
100
AcDbArc
 50
53.4883258649
 51
56.3327977698
  0
ARC
  5
2C6
330
1F
100
AcDbEntity
  8
0
  6
Continuous
 62
     7
370
    15
100
AcDbCircle
 10
11199.9415801262
 20
5411.5662318409
 30
0.0
 40
63.82657544306262
100
AcDbArc
 50
37.5437337809
 51
38.3415860334
  0
LINE
  5
2C7
330
1F
100
AcDbEntity
  8
0
  6
Continuous
 62
     7
370
    15
100
AcDbLine
 10
11250.5489341229
 20
5450.4600289587
 30
0.0
 11
9850.4627673327
 21
4083.9330085459
 31
0.0
  0
LINE
  5
2C8
330
1F
100
AcDbEntity
  8
0
  6
Continuous
 62
     7
370
    15
100
AcDbLine
 10
11245.6107809891
 20
5455.7934697531
 30
0.0
 11
9845.5246141989
 21
4089.2664493403
 31
0.0
  0
ARC
  5
2C9
330
1F
100
AcDbEntity
  8
0
  6
Continuous
 62
     7
370
    15
100
AcDbCircle
 10
11242.334570491
 20
5450.2940686232
 30
0.0
 40
6.401325488927393
100
AcDbArc
 50
56.3321675565
 51
59.2160724161
  0
ARC
  5
2CA
330
1F
100
AcDbEntity
  8
0
  6
Continuous
 62
     7
370
    15
100
AcDbCircle
 10
11200.14507425
 20
5411.7225750901
 30
0.0
 40
63.56995691607715
100
AcDbArc
 50
36.7437906472
 51
37.5437696627
  0
LINE
  5
2CB
330
1F
100
AcDbEntity
  8
0
  6
Continuous
 62
     7
370
    15
100
AcDbLine
 10
11251.0848663451
 20
5449.7525238624
 30
0.0
 11
9850.9986995549
 21
4083.2255034495
 31
0.0
  0
LINE
  5
2CC
330
1F
100
AcDbEntity
  8
0
  6
Continuous
 62
     7
370
    15
100
AcDbLine
 10
11245.3322647911
 20
5455.9498821224
 30
0.0
 11
9845.2460980009
 21
4089.4228617096
 31
0.0
  0
ARC
  5
2CD
330
1F
100
AcDbEntity
  8
0
  6
Continuous
 62
     7
370
    15
100
AcDbCircle
 10
11242.4171691332
 20
5450.4329309092
 30
0.0
 40
6.239754272643233
100
AcDbArc
 50
59.2150697173
 51
62.1485252494
  0
LINE
  5
2CE
330
1F
100
AcDbEntity
  8
0
  6
Continuous
 62
     7
370
    15
100
AcDbLine
 10
11243.5708656634
 20
5456.7747887071
 30
0.0
 11
9843.4846988732
 21
4090.2477682943
 31
0.0
  0
LINE
  5
2CF
330
1F
100
AcDbEntity
  8
0
  6
Continuous
 62
     7
370
    15
100
AcDbLine
 10
11243.5708656634
 20
5456.7747887071
 30
0.0
 11
11245.0489218368
 21
5456.0902592577
 31
0.0
  0
LINE
  5
2D0
330
1F
100
AcDbEntity
  8
0
  6
Continuous
 62
     7
370
    15
100
AcDbLine
 10
11245.0489218368
 20
5456.0902592577
 30
0.0
 11
9844.9627550466
 21
4089.5632388449
 31
0.0
  0
ARC
  5
2D1
330
1F
100
AcDbEntity
  8
0
  6
Continuous
 62
     7
370
    15
100
AcDbCircle
 10
11200.3777317298
 20
5411.896252554
 30
0.0
 40
63.27962372096322
100
AcDbArc
 50
35.9413622241
 51
36.7438028699
  0
LINE
  5
2D2
330
1F
100
AcDbEntity
  8
0
  6
Continuous
 62
     7
370
    15
100
AcDbLine
 10
11251.6100619172
 20
5449.0386693013
 30
0.0
 11
9851.523895127
 21
4082.5116488885
 31
0.0
  0
ARC
  5
2D3
330
1F
100
AcDbEntity
  8
0
  6
Continuous
 62
     7
370
    15
100
AcDbCircle
 10
11242.5045805119
 20
5450.5985125359
 30
0.0
 40
6.052516405137054
100
AcDbArc
 50
62.1478547304
 51
65.1415811378
  0
ARC
  5
2D4
330
1F
100
AcDbEntity
  8
0
  6
Continuous
 62
     7
370
    15
100
AcDbCircle
 10
11246.3609862762
 20
5445.2339761677
 30
0.0
 40
6.482937985703131
100
AcDbArc
 50
32.893901823
 51
35.9357672372
  0
LINE
  5
2D5
330
1F
100
AcDbEntity
  8
0
  6
Continuous
 62
     7
370
    15
100
AcDbLine
 10
11251.8045645492
 20
5448.7547630843
 30
0.0
 11
9851.718397759
 21
4082.2277426715
 31
0.0
  0
ARC
  5
2D6
330
1F
100
AcDbEntity
  8
0
  6
Continuous
 62
     7
370
    15
100
AcDbCircle
 10
11246.4913524799
 20
5445.3180654669
 30
0.0
 40
6.327804754110597
100
AcDbArc
 50
29.7920662573
 51
32.8956406122
  0
LINE
  5
2D7
330
1F
100
AcDbEntity
  8
0
  6
Continuous
 62
     7
370
    15
100
AcDbLine
 10
11251.9828382425
 20
5448.4620592847
 30
0.0
 11
9851.8966714523
 21
4081.9350388718
 31
0.0
  0
ARC
  5
2D8
330
1F
100
AcDbEntity
  8
0
  6
Continuous
 62
     7
370
    15
100
AcDbCircle
 10
11246.6531680088
 20
5445.4105461483
 30
0.0
 40
6.14142631808692
100
AcDbArc
 50
26.6273631976
 51
29.7933794266
  0
LINE
  5
2D9
330
1F
100
AcDbEntity
  8
0
  6
Continuous
 62
     7
370
    15
100
AcDbLine
 10
11252.1432364636
 20
5448.1630478436
 30
0.0
 11
9852.0570696734
 21
4081.6360274308
 31
0.0
  0
LINE
  5
2DA
330
1F
100
AcDbEntity
  8
0
  6
Continuous
 62
     7
370
    15
100
AcDbLine
 10
11241.5852911924
 20
5457.7947547811
 30
0.0
 11
9841.4991244022
 21
4091.2677343683
 31
0.0
  0
LINE
  5
2DB
330
1F
100
AcDbEntity
  8
0
  6
Continuous
 62
     7
370
    15
100
AcDbLine
 10
11241.5852911924
 20
5457.7947547811
 30
0.0
 11
11243.3359399764
 21
5456.8898657332
 31
0.0
  0
LINE
  5
2DC
330
1F
100
AcDbEntity
  8
0
  6
Continuous
 62
     7
370
    15
100
AcDbLine
 10
11243.3359399764
 20
5456.8898657332
 30
0.0
 11
9843.2497731862
 21
4090.3628453204
 31
0.0
  0
ARC
  5
2DD
330
1F
100
AcDbEntity
  8
0
  6
Continuous
 62
     7
370
    15
100
AcDbCircle
 10
11246.8434776454
 20
5445.5057942062
 30
0.0
 40
5.928612014999076
100
AcDbArc
 50
23.387440926
 51
26.6287939963
  0
LINE
  5
2DE
330
1F
100
AcDbEntity
  8
0
  6
Continuous
 62
     7
370
    15
100
AcDbLine
 10
11252.285004723
 20
5447.8591372514
 30
0.0
 11
9852.1988379328
 21
4081.3321168386
 31
0.0
  0
ARC
  5
2DF
330
1F
100
AcDbEntity
  8
0
  6
Continuous
 62
     7
370
    15
100
AcDbCircle
 10
11247.0584692145
 20
5445.5986211315
 30
0.0
 40
5.694436455883298
100
AcDbArc
 50
20.0591924115
 51
23.3888473269
  0
LINE
  5
2E0
330
1F
100
AcDbEntity
  8
0
  6
Continuous
 62
     7
370
    15
100
AcDbLine
 10
11252.4074741936
 20
5447.5517602158
 30
0.0
 11
9852.3213074035
 21
4081.024739803
 31
0.0
  0
LINE
  5
2E1
330
1F
100
AcDbEntity
  8
0
  6
Continuous
 62
     7
370
    15
100
AcDbLine
 10
11243.4530475056
 20
5456.8309225853
 30
0.0
 11
9843.3668807154
 21
4090.3039021724
 31
0.0
  0
ARC
  5
2E2
330
1F
100
AcDbEntity
  8
0
  6
Continuous
 62
     7
370
    15
100
AcDbCircle
 10
11246.0889732954
 20
5462.2116991418
 30
0.0
 40
5.99173273111596
100
AcDbArc
 50
243.9007681008
 51
245.1487643326
  0
ARC
  5
2E3
330
1F
100
AcDbEntity
  8
0
  6
Continuous
 62
     7
370
    15
100
AcDbCircle
 10
11246.1271518817
 20
5462.2896061003
 30
0.0
 40
6.078491583590538
100
AcDbArc
 50
242.664836493
 51
243.9006525032
  0
ARC
  5
2E4
330
1F
100
AcDbEntity
  8
0
  6
Continuous
 62
     7
370
    15
100
AcDbCircle
 10
11247.2921122742
 20
5445.6838225581
 30
0.0
 40
5.445743168799758
100
AcDbArc
 50
16.6302670526
 51
20.0602908941
  0
LINE
  5
2E5
330
1F
100
AcDbEntity
  8
0
  6
Continuous
 62
     7
370
    15
100
AcDbLine
 10
11252.5100683006
 20
5447.2423646866
 30
0.0
 11
9852.4239015104
 21
4080.7153442738
 31
0.0
  0
ARC
  5
2E6
330
1F
100
AcDbEntity
  8
0
  6
Continuous
 62
     7
370
    15
100
AcDbCircle
 10
11247.5419922292
 20
5445.7583977911
 30
0.0
 40
5.184972285269192
100
AcDbArc
 50
13.0867274439
 51
16.6309126352
  0
LINE
  5
2E7
330
1F
100
AcDbEntity
  8
0
  6
Continuous
 62
     7
370
    15
100
AcDbLine
 10
11252.5923027209
 20
5446.9324086666
 30
0.0
 11
9852.5061359307
 21
4080.4053882538
 31
0.0
  0
ARC
  5
2E8
330
1F
100
AcDbEntity
  8
0
  6
Continuous
 62
     7
370
    15
100
AcDbCircle
 10
11247.8005185084
 20
5445.8184115536
 30
0.0
 40
4.919571679247325
100
AcDbArc
 50
9.4170861192
 51
13.0876810218
  0
LINE
  5
2E9
330
1F
100
AcDbEntity
  8
0
  6
Continuous
 62
     7
370
    15
100
AcDbLine
 10
11252.6537911493
 20
5446.6233526574
 30
0.0
 11
9852.5676243591
 21
4080.0963322446
 31
0.0
  0
ARC
  5
2EA
330
1F
100
AcDbEntity
  8
0
  6
Continuous
 62
     7
370
    15
100
AcDbCircle
 10
11284.5906289717
 20
5451.9110866025
 30
0.0
 40
32.3716193659426
100
AcDbArc
 50
189.4010908837
 51
190.2703756256
  0
LINE
  5
2EB
330
1F
100
AcDbEntity
  8
0
  6
Continuous
 62
     7
370
    15
100
AcDbLine
 10
11252.7376885766
 20
5446.1394379165
 30
0.0
 11
9852.6515217864
 21
4079.6124175037
 31
0.0
  0
LINE
  5
2EC
330
1F
100
AcDbEntity
  8
0
  6
Continuous
 62
     7
370
    15
100
AcDbLine
 10
11241.3092397496
 20
5457.9286885453
 30
0.0
 11
9841.2230729594
 21
4091.4016681325
 31
0.0
  0
ARC
  5
2ED
330
1F
100
AcDbEntity
  8
0
  6
Continuous
 62
     7
370
    15
100
AcDbCircle
 10
11238.8199617972
 20
5452.4465750474
 30
0.0
 40
6.02080336231671
100
AcDbArc
 50
62.6583271377
 51
65.578498985
  0
LINE
  5
2EE
330
1F
100
AcDbEntity
  8
0
  6
Continuous
 62
     7
370
    15
100
AcDbLine
 10
11241.0298948795
 20
5458.0468512988
 30
0.0
 11
9840.9437280893
 21
4091.519830886
 31
0.0
  0
ARC
  5
2EF
330
1F
100
AcDbEntity
  8
0
  6
Continuous
 62
     7
370
    15
100
AcDbCircle
 10
11238.9047852907
 20
5452.6336695717
 30
0.0
 40
5.815378506688979
100
AcDbArc
 50
65.5773236299
 51
68.5659962018
  0
ARC
  5
2F0
330
1F
100
AcDbEntity
  8
0
  6
Continuous
 62
     7
370
    15
100
AcDbCircle
 10
11285.0154310752
 20
5451.988182514
 30
0.0
 40
32.80336071460441
100
AcDbArc
 50
190.2705872936
 51
191.1320963658
  0
LINE
  5
2F1
330
1F
100
AcDbEntity
  8
0
  6
Continuous
 62
     7
370
    15
100
AcDbLine
 10
11252.8292766906
 20
5445.6547837341
 30
0.0
 11
9852.7431099004
 21
4079.1277633212
 31
0.0
  0
LINE
  5
2F2
330
1F
100
AcDbEntity
  8
0
  6
Continuous
 62
     7
370
    15
100
AcDbLine
 10
11240.7483471583
 20
5458.1487821969
 30
0.0
 11
9840.6621803682
 21
4091.621761784
 31
0.0
  0
ARC
  5
2F3
330
1F
100
AcDbEntity
  8
0
  6
Continuous
 62
     7
370
    15
100
AcDbCircle
 10
11238.9850288945
 20
5452.8384419277
 30
0.0
 40
5.595445029071207
100
AcDbArc
 50
68.5646043117
 51
71.6310610637
  0
LINE
  5
2F4
330
1F
100
AcDbEntity
  8
0
  6
Continuous
 62
     7
370
    15
100
AcDbLine
 10
11240.1830446693
 20
5458.3024193004
 30
0.0
 11
9840.0968778791
 21
4091.7753988876
 31
0.0
  0
ARC
  5
2F5
330
1F
100
AcDbEntity
  8
0
  6
Continuous
 62
     7
370
    15
100
AcDbCircle
 10
11239.0923733096
 20
5453.1725070071
 30
0.0
 40
5.244574735109484
100
AcDbArc
 50
71.5939106443
 51
77.9970630386
  0
ARC
  5
2F6
330
1F
100
AcDbEntity
  8
0
  6
Continuous
 62
     7
370
    15
100
AcDbCircle
 10
11285.4124237109
 20
5452.0664729463
 30
0.0
 40
33.2079994624558
100
AcDbArc
 50
191.1323885566
 51
191.9869952136
  0
LINE
  5
2F7
330
1F
100
AcDbEntity
  8
0
  6
Continuous
 62
     7
370
    15
100
AcDbLine
 10
11252.9285324284
 20
5445.1695145264
 30
0.0
 11
9852.8423656382
 21
4078.6424941136
 31
0.0
  0
ARC
  5
2F8
330
1F
100
AcDbEntity
  8
0
  6
Continuous
 62
     7
370
    15
100
AcDbCircle
 10
11285.8174435125
 20
5452.1524092198
 30
0.0
 40
33.62203578901929
100
AcDbArc
 50
191.9868997567
 51
192.8345028044
  0
LINE
  5
2F9
330
1F
100
AcDbEntity
  8
0
  6
Continuous
 62
     7
370
    15
100
AcDbLine
 10
11253.0354286085
 20
5444.68375543
 30
0.0
 11
9852.9492618183
 21
4078.1567350172
 31
0.0
  0
LINE
  5
2FA
330
1F
100
AcDbEntity
  8
0
  6
Continuous
 62
     7
370
    15
100
AcDbLine
 10
11239.9014969481
 20
5458.3535256779
 30
0.0
 11
9839.815330158
 21
4091.8265052651
 31
0.0
  0
ARC
  5
2FB
330
1F
100
AcDbEntity
  8
0
  6
Continuous
 62
     7
370
    15
100
AcDbCircle
 10
11239.1702965245
 20
5453.5242203046
 30
0.0
 40
4.884346880440864
100
AcDbArc
 50
78.0331534656
 51
81.3902959868
  0
LINE
  5
2FC
330
1F
100
AcDbEntity
  8
0
  6
Continuous
 62
     7
370
    15
100
AcDbLine
 10
11239.6221520781
 20
5458.3872028245
 30
0.0
 11
9839.5359852879
 21
4091.8601824117
 31
0.0
  0
ARC
  5
2FD
330
1F
100
AcDbEntity
  8
0
  6
Continuous
 62
     7
370
    15
100
AcDbCircle
 10
11239.2063864427
 20
5453.7631219072
 30
0.0
 40
4.642734689099094
100
AcDbArc
 50
81.3892961549
 51
84.8621721989
  0
ARC
  5
2FE
330
1F
100
AcDbEntity
  8
0
  6
Continuous
 62
     7
370
    15
100
AcDbCircle
 10
11286.2443232982
 20
5452.2498138013
 30
0.0
 40
34.05988734258062
100
AcDbArc
 50
192.8347480212
 51
193.6748986265
  0
LINE
  5
2FF
330
1F
100
AcDbEntity
  8
0
  6
Continuous
 62
     7
370
    15
100
AcDbLine
 10
11253.1499388732
 20
5444.1976311579
 30
0.0
 11
9853.063772083
 21
4077.6706107451
 31
0.0
  0
LINE
  5
300
330
1F
100
AcDbEntity
  8
0
  6
Continuous
 62
     7
370
    15
100
AcDbLine
 10
11239.3461006352
 20
5458.4033187945
 30
0.0
 11
9839.2599338451
 21
4091.8762983817
 31
0.0
  0
ARC
  5
301
330
1F
100
AcDbEntity
  8
0
  6
Continuous
 62
     7
370
    15
100
AcDbCircle
 10
11239.2273744836
 20
5453.9973421597
 30
0.0
 40
4.40757597842413
100
AcDbArc
 50
84.8612472869
 51
88.456446276
  0
ARC
  5
302
330
1F
100
AcDbEntity
  8
0
  6
Continuous
 62
     7
370
    15
100
AcDbCircle
 10
11286.6359943549
 20
5452.345309616
 30
0.0
 40
34.46303201955143
100
AcDbArc
 50
193.6752192388
 51
194.5089105226
  0
LINE
  5
303
330
1F
100
AcDbEntity
  8
0
  6
Continuous
 62
     7
370
    15
100
AcDbLine
 10
11253.2720335702
 20
5443.7112667199
 30
0.0
 11
9853.18586678
 21
4077.184246307
 31
0.0
  0
LINE
  5
304
330
1F
100
AcDbEntity
  8
0
  6
Continuous
 62
     7
370
    15
100
AcDbLine
 10
11237.5954518512
 20
5458.4500074019
 30
0.0
 11
9837.5092850611
 21
4091.9229869891
 31
0.0
  0
LINE
  5
305
330
1F
100
AcDbEntity
  8
0
  6
Continuous
 62
     7
370
    15
100
AcDbLine
 10
11239.3461006352
 20
5458.4033187945
 30
0.0
 11
11237.5954518512
 21
5458.4500074019
 31
0.0
  0
ARC
  5
306
330
1F
100
AcDbEntity
  8
0
  6
Continuous
 62
     7
370
    15
100
AcDbCircle
 10
11287.0363558904
 20
5452.4490635706
 30
0.0
 40
34.87661903841144
100
AcDbArc
 50
194.5091443001
 51
195.3362416362
  0
LINE
  5
307
330
1F
100
AcDbEntity
  8
0
  6
Continuous
 62
     7
370
    15
100
AcDbLine
 10
11253.4016822232
 20
5443.2247867507
 30
0.0
 11
9853.315515433
 21
4076.6977663379
 31
0.0
  0
ARC
  5
308
330
1F
100
AcDbEntity
  8
0
  6
Continuous
 62
     7
370
    15
100
AcDbCircle
 10
11287.4181889092
 20
5452.5536609847
 30
0.0
 40
35.27251935420962
100
AcDbArc
 50
195.336053773
 51
196.157081466
  0
LINE
  5
309
330
1F
100
AcDbEntity
  8
0
  6
Continuous
 62
     7
370
    15
100
AcDbLine
 10
11253.5388494141
 20
5442.7383170288
 30
0.0
 11
9853.452682624
 21
4076.211296616
 31
0.0
  0
ARC
  5
30A
330
1F
100
AcDbEntity
  8
0
  6
Continuous
 62
     7
370
    15
100
AcDbCircle
 10
11248.5689857664
 20
5441.2976271731
 30
0.0
 40
5.174469242161227
100
AcDbArc
 50
13.3004922271
 51
16.1660908769
  0
LINE
  5
30B
330
1F
100
AcDbEntity
  8
0
  6
Continuous
 62
     7
370
    15
100
AcDbLine
 10
11253.6046596839
 20
5442.4880557237
 30
0.0
 11
9853.5184928937
 21
4075.9610353109
 31
0.0
  0
ARC
  5
30C
330
1F
100
AcDbEntity
  8
0
  6
Continuous
 62
     7
370
    15
100
AcDbCircle
 10
11248.7765290145
 20
5441.3465978372
 30
0.0
 40
4.961226851013338
100
AcDbArc
 50
10.3545467656
 51
13.301530294
  0
LINE
  5
30D
330
1F
100
AcDbEntity
  8
0
  6
Continuous
 62
     7
370
    15
100
AcDbLine
 10
11253.6569591542
 20
5442.2383228615
 30
0.0
 11
9853.570792364
 21
4075.7113024487
 31
0.0
  0
ARC
  5
30E
330
1F
100
AcDbEntity
  8
0
  6
Continuous
 62
     7
370
    15
100
AcDbCircle
 10
11248.9870442947
 20
5441.3850485563
 30
0.0
 40
4.74722885853313
100
AcDbArc
 50
7.3198707342
 51
10.3547065837
  0
LINE
  5
30F
330
1F
100
AcDbEntity
  8
0
  6
Continuous
 62
     7
370
    15
100
AcDbLine
 10
11253.6955847367
 20
5441.9898863371
 30
0.0
 11
9853.6094179465
 21
4075.4628659243
 31
0.0
  0
ARC
  5
310
330
1F
100
AcDbEntity
  8
0
  6
Continuous
 62
     7
370
    15
100
AcDbCircle
 10
11249.1980430793
 20
5441.4120958533
 30
0.0
 40
4.534503589535142
100
AcDbArc
 50
4.1913107342
 51
7.3205807186
  0
LINE
  5
311
330
1F
100
AcDbEntity
  8
0
  6
Continuous
 62
     7
370
    15
100
AcDbLine
 10
11253.720419469
 20
5441.743508878
 30
0.0
 11
9853.6342526788
 21
4075.2164884652
 31
0.0
  0
LINE
  5
312
330
1F
100
AcDbEntity
  8
0
  6
Continuous
 62
     7
370
    15
100
AcDbLine
 10
11237.4783443221
 20
5458.4547188881
 30
0.0
 11
9837.3921775319
 21
4091.9276984753
 31
0.0
  0
ARC
  5
313
330
1F
100
AcDbEntity
  8
0
  6
Continuous
 62
     7
370
    15
100
AcDbCircle
 10
11237.7112993197
 20
5462.7872367765
 30
0.0
 40
4.338776242716803
100
AcDbArc
 50
266.9222290707
 51
268.4699925599
  0
LINE
  5
314
330
1F
100
AcDbEntity
  8
0
  6
Continuous
 62
     7
370
    15
100
AcDbLine
 10
11237.3605261642
 20
5458.4626251132
 30
0.0
 11
9837.274359374
 21
4091.9356047004
 31
0.0
  0
ARC
  5
315
330
1F
100
AcDbEntity
  8
0
  6
Continuous
 62
     7
370
    15
100
AcDbCircle
 10
11237.7169443373
 20
5462.8921371478
 30
0.0
 40
4.443828392069565
100
AcDbArc
 50
265.3996389046
 51
266.9221694168
  0
ARC
  5
316
330
1F
100
AcDbEntity
  8
0
  6
Continuous
 62
     7
370
    15
100
AcDbCircle
 10
11249.4041775899
 20
5441.4271260374
 30
0.0
 40
4.32782186108793
100
AcDbArc
 50
0.9641234938
 51
4.1923136513
  0
LINE
  5
317
330
1F
100
AcDbEntity
  8
0
  6
Continuous
 62
     7
370
    15
100
AcDbLine
 10
11253.7313867491
 20
5441.499947419
 30
0.0
 11
9853.6452199589
 21
4074.9729270062
 31
0.0
  0
LINE
  5
318
330
1F
100
AcDbEntity
  8
0
  6
Continuous
 62
     7
370
    15
100
AcDbLine
 10
11235.8824699909
 20
5458.5815044561
 30
0.0
 11
9835.7963032007
 21
4092.0544840433
 31
0.0
  0
LINE
  5
319
330
1F
100
AcDbEntity
  8
0
  6
Continuous
 62
     7
370
    15
100
AcDbLine
 10
11237.3605261642
 20
5458.4626251132
 30
0.0
 11
11235.8824699909
 21
5458.5815044561
 31
0.0
  0
ARC
  5
31A
330
1F
100
AcDbEntity
  8
0
  6
Continuous
 62
     7
370
    15
100
AcDbCircle
 10
11249.602737495
 20
5441.4304032212
 30
0.0
 40
4.129234924102199
100
AcDbArc
 50
357.6341829937
 51
0.9650159151
  0
LINE
  5
31B
330
1F
100
AcDbEntity
  8
0
  6
Continuous
 62
     7
370
    15
100
AcDbLine
 10
11253.728452806
 20
5441.2599502045
 30
0.0
 11
9853.6422860159
 21
4074.7329297917
 31
0.0
  0
ARC
  5
31C
330
1F
100
AcDbEntity
  8
0
  6
Continuous
 62
     7
370
    15
100
AcDbCircle
 10
11249.7921528635
 20
5441.4225107061
 30
0.0
 40
3.93965520749393
100
AcDbArc
 50
354.1981109334
 51
357.6351545479
  0
LINE
  5
31D
330
1F
100
AcDbEntity
  8
0
  6
Continuous
 62
     7
370
    15
100
AcDbLine
 10
11253.7116267004
 20
5441.0242545117
 30
0.0
 11
9853.6254599102
 21
4074.4972340989
 31
0.0
  0
ARC
  5
31E
330
1F
100
AcDbEntity
  8
0
  6
Continuous
 62
     7
370
    15
100
AcDbCircle
 10
11249.9671234028
 20
5441.4046927574
 30
0.0
 40
3.763779776299256
100
AcDbArc
 50
350.6557678927
 51
354.1987055408
  0
LINE
  5
31F
330
1F
100
AcDbEntity
  8
0
  6
Continuous
 62
     7
370
    15
100
AcDbLine
 10
11253.6809603238
 20
5440.793584315
 30
0.0
 11
9853.5947935336
 21
4074.2665639022
 31
0.0
  0
LINE
  5
320
330
1F
100
AcDbEntity
  8
0
  6
Continuous
 62
     7
370
    15
100
AcDbLine
 10
11253.6809603238
 20
5440.793584315
 30
0.0
 11
11253.3683940778
 21
5438.8968383397
 31
0.0
  0
LINE
  5
321
330
1F
100
AcDbEntity
  8
0
  6
Continuous
 62
     7
370
    15
100
AcDbLine
 10
11253.3683940778
 20
5438.8968383397
 30
0.0
 11
9853.2822272876
 21
4072.3698179269
 31
0.0
  0
LINE
  5
322
330
1F
100
AcDbEntity
  8
0
  6
Continuous
 62
     7
370
    15
100
AcDbLine
 10
11235.5991270365
 20
5458.5951396099
 30
0.0
 11
9835.5129602463
 21
4092.0681191971
 31
0.0
  0
ARC
  5
323
330
1F
100
AcDbEntity
  8
0
  6
Continuous
 62
     7
370
    15
100
AcDbCircle
 10
11235.5308631573
 20
5454.2257966633
 30
0.0
 40
4.369876170129255
100
AcDbArc
 50
85.3849061922
 51
89.1049194274
  0
LINE
  5
324
330
1F
100
AcDbEntity
  8
0
  6
Continuous
 62
     7
370
    15
100
AcDbLine
 10
11235.3206108386
 20
5458.5901175084
 30
0.0
 11
9835.2344440484
 21
4092.0630970956
 31
0.0
  0
ARC
  5
325
330
1F
100
AcDbEntity
  8
0
  6
Continuous
 62
     7
370
    15
100
AcDbCircle
 10
11235.534425079
 20
5454.4578867352
 30
0.0
 40
4.137758776498751
100
AcDbArc
 50
89.1040318242
 51
92.962017058
  0
LINE
  5
326
330
1F
100
AcDbEntity
  8
0
  6
Continuous
 62
     7
370
    15
100
AcDbLine
 10
11235.0480720759
 20
5458.5664583126
 30
0.0
 11
9834.9619052857
 21
4092.0394378998
 31
0.0
  0
ARC
  5
327
330
1F
100
AcDbEntity
  8
0
  6
Continuous
 62
     7
370
    15
100
AcDbCircle
 10
11235.523072721
 20
5454.6763209857
 30
0.0
 40
3.919029731282235
100
AcDbArc
 50
92.961288459
 51
96.9615727955
  0
LINE
  5
328
330
1F
100
AcDbEntity
  8
0
  6
Continuous
 62
     7
370
    15
100
AcDbLine
 10
11234.7826375409
 20
5458.5242605222
 30
0.0
 11
9834.6964707507
 21
4091.9972401094
 31
0.0
  0
ARC
  5
329
330
1F
100
AcDbEntity
  8
0
  6
Continuous
 62
     7
370
    15
100
AcDbCircle
 10
11235.4985962934
 20
5454.8766262693
 30
0.0
 40
3.717234533628417
100
AcDbArc
 50
96.9612914848
 51
101.1048606936
  0
LINE
  5
32A
330
1F
100
AcDbEntity
  8
0
  6
Continuous
 62
     7
370
    15
100
AcDbLine
 10
11234.5254031378
 20
5458.4636972905
 30
0.0
 11
9834.4392363476
 21
4091.9366768777
 31
0.0
  0
ARC
  5
32B
330
1F
100
AcDbEntity
  8
0
  6
Continuous
 62
     7
370
    15
100
AcDbCircle
 10
11235.4633946185
 20
5455.0562675482
 30
0.0
 40
3.534176773493723
100
AcDbArc
 50
101.1057892582
 51
105.3910747363
  0
LINE
  5
32C
330
1F
100
AcDbEntity
  8
0
  6
Continuous
 62
     7
370
    15
100
AcDbLine
 10
11234.2774326475
 20
5458.3850191549
 30
0.0
 11
9834.1912658573
 21
4091.857998742
 31
0.0
  0
ARC
  5
32D
330
1F
100
AcDbEntity
  8
0
  6
Continuous
 62
     7
370
    15
100
AcDbCircle
 10
11235.4202416655
 20
5455.2133234345
 30
0.0
 40
3.371300371424446
100
AcDbArc
 50
105.3924040235
 51
109.8148438371
  0
ARC
  5
32E
330
1F
100
AcDbEntity
  8
0
  6
Continuous
 62
     7
370
    15
100
AcDbCircle
 10
11249.8084380303
 20
5439.4828095795
 30
0.0
 40
3.607859386711467
100
AcDbArc
 50
347.3566644336
 51
350.6528884602
  0
LINE
  5
32F
330
1F
100
AcDbEntity
  8
0
  6
Continuous
 62
     7
370
    15
100
AcDbLine
 10
11253.3288122045
 20
5438.6931165837
 30
0.0
 11
9853.2426454143
 21
4072.1660961709
 31
0.0
  0
LINE
  5
330
330
1F
100
AcDbEntity
  8
0
  6
Continuous
 62
     7
370
    15
100
AcDbLine
 10
11234.0397507261
 20
5458.2885527466
 30
0.0
 11
9833.9535839359
 21
4091.7615323338
 31
0.0
  0
ARC
  5
331
330
1F
100
AcDbEntity
  8
0
  6
Continuous
 62
     7
370
    15
100
AcDbCircle
 10
11235.372891649
 20
5455.3448931929
 30
0.0
 40
3.231469679410343
100
AcDbArc
 50
109.8157866221
 51
114.3650859384
  0
ARC
  5
332
330
1F
100
AcDbEntity
  8
0
  6
Continuous
 62
     7
370
    15
100
AcDbCircle
 10
11249.9410844642
 20
5439.4530646733
 30
0.0
 40
3.471918826952556
100
AcDbArc
 50
343.9746609789
 51
347.3564962894
  0
LINE
  5
333
330
1F
100
AcDbEntity
  8
0
  6
Continuous
 62
     7
370
    15
100
AcDbLine
 10
11253.2780834892
 20
5438.4945982689
 30
0.0
 11
9853.191916699
 21
4071.9675778561
 31
0.0
  0
LINE
  5
334
330
1F
100
AcDbEntity
  8
0
  6
Continuous
 62
     7
370
    15
100
AcDbLine
 10
11233.8133387866
 20
5458.1746947254
 30
0.0
 11
9833.7271719964
 21
4091.6476743126
 31
0.0
  0
ARC
  5
335
330
1F
100
AcDbEntity
  8
0
  6
Continuous
 62
     7
370
    15
100
AcDbCircle
 10
11235.3256942689
 20
5455.4493502397
 30
0.0
 40
3.116844826165076
100
AcDbArc
 50
114.3669230509
 51
119.0268879651
  0
ARC
  5
336
330
1F
100
AcDbEntity
  8
0
  6
Continuous
 62
     7
370
    15
100
AcDbCircle
 10
11250.0581302642
 20
5439.4194685167
 30
0.0
 40
3.350146824647429
100
AcDbArc
 50
340.5111691375
 51
343.9742958433
  0
LINE
  5
337
330
1F
100
AcDbEntity
  8
0
  6
Continuous
 62
     7
370
    15
100
AcDbLine
 10
11253.2163356021
 20
5438.3017821608
 30
0.0
 11
9853.1301688119
 21
4071.774761748
 31
0.0
  0
ARC
  5
338
330
1F
100
AcDbEntity
  8
0
  6
Continuous
 62
     7
370
    15
100
AcDbCircle
 10
11250.1592542957
 20
5439.3837821031
 30
0.0
 40
3.242910727855528
100
AcDbArc
 50
336.9707711771
 51
340.5094818981
  0
LINE
  5
339
330
1F
100
AcDbEntity
  8
0
  6
Continuous
 62
     7
370
    15
100
AcDbLine
 10
11253.1437225711
 20
5438.1151532755
 30
0.0
 11
9853.0575557809
 21
4071.5881328627
 31
0.0
  0
LINE
  5
33A
330
1F
100
AcDbEntity
  8
0
  6
Continuous
 62
     7
370
    15
100
AcDbLine
 10
11233.2168336548
 20
5457.8343608895
 30
0.0
 11
9833.1306668646
 21
4091.3073404767
 31
0.0
  0
ARC
  5
33B
330
1F
100
AcDbEntity
  8
0
  6
Continuous
 62
     7
370
    15
100
AcDbCircle
 10
11248.1064185442
 20
5432.4302131423
 30
0.0
 40
29.44606019382028
100
AcDbArc
 50
119.0385983818
 51
120.3749265548
  0
ARC
  5
33C
330
1F
100
AcDbEntity
  8
0
  6
Continuous
 62
     7
370
    15
100
AcDbCircle
 10
11250.2461703449
 20
5439.3469441298
 30
0.0
 40
3.148510379929223
100
AcDbArc
 50
333.3595091677
 51
336.968961774
  0
LINE
  5
33D
330
1F
100
AcDbEntity
  8
0
  6
Continuous
 62
     7
370
    15
100
AcDbLine
 10
11253.0604272528
 20
5437.935180811
 30
0.0
 11
9852.9742604627
 21
4071.4081603982
 31
0.0
  0
ARC
  5
33E
330
1F
100
AcDbEntity
  8
0
  6
Continuous
 62
     7
370
    15
100
AcDbCircle
 10
11250.3160899873
 20
5439.3119413967
 30
0.0
 40
3.070318670373685
100
AcDbArc
 50
329.687804472
 51
333.3583041936
  0
LINE
  5
33F
330
1F
100
AcDbEntity
  8
0
  6
Continuous
 62
     7
370
    15
100
AcDbLine
 10
11252.9666596853
 20
5437.7623165991
 30
0.0
 11
9852.8804928951
 21
4071.2352961863
 31
0.0
  0
ARC
  5
340
330
1F
100
AcDbEntity
  8
0
  6
Continuous
 62
     7
370
    15
100
AcDbCircle
 10
11250.369740479
 20
5439.2806859776
 30
0.0
 40
3.008227872689316
100
AcDbArc
 50
325.9652809183
 51
329.6859839927
  0
LINE
  5
341
330
1F
100
AcDbEntity
  8
0
  6
Continuous
 62
     7
370
    15
100
AcDbLine
 10
11252.862654617
 20
5437.5969953782
 30
0.0
 11
9852.7764878268
 21
4071.0699749654
 31
0.0
  0
LINE
  5
342
330
1F
100
AcDbEntity
  8
0
  6
Continuous
 62
     7
370
    15
100
AcDbLine
 10
11232.6299495004
 20
5457.4810774959
 30
0.0
 11
9832.5437827102
 21
4090.9540570831
 31
0.0
  0
ARC
  5
343
330
1F
100
AcDbEntity
  8
0
  6
Continuous
 62
     7
370
    15
100
AcDbCircle
 10
11247.9925676287
 20
5432.6243867366
 30
0.0
 40
29.22097040241469
100
AcDbArc
 50
120.3748518914
 51
121.7180388263
  0
ARC
  5
344
330
1F
100
AcDbEntity
  8
0
  6
Continuous
 62
     7
370
    15
100
AcDbCircle
 10
11250.4091652455
 20
5439.2541443121
 30
0.0
 40
2.960701383956459
100
AcDbArc
 50
322.2030215515
 51
325.9639105777
  0
LINE
  5
345
330
1F
100
AcDbEntity
  8
0
  6
Continuous
 62
     7
370
    15
100
AcDbLine
 10
11252.7486739775
 20
5437.4396329239
 30
0.0
 11
9852.6625071874
 21
4070.9126125111
 31
0.0
  0
LINE
  5
346
330
1F
100
AcDbEntity
  8
0
  6
Continuous
 62
     7
370
    15
100
AcDbLine
 10
11252.7486739775
 20
5437.4396329239
 30
0.0
 11
11250.2897282451
 21
5434.2696337944
 31
0.0
  0
LINE
  5
347
330
1F
100
AcDbEntity
  8
0
  6
Continuous
 62
     7
370
    15
100
AcDbLine
 10
11250.2897282451
 20
5434.2696337944
 30
0.0
 11
9850.2035614549
 21
4067.7426133816
 31
0.0
  0
LINE
  5
348
330
1F
100
AcDbEntity
  8
0
  6
Continuous
 62
     7
370
    15
100
AcDbLine
 10
11232.0528802998
 20
5457.1149602671
 30
0.0
 11
9831.9667135096
 21
4090.5879398543
 31
0.0
  0
ARC
  5
349
330
1F
100
AcDbEntity
  8
0
  6
Continuous
 62
     7
370
    15
100
AcDbCircle
 10
11247.8865460809
 20
5432.7959858744
 30
0.0
 40
29.01926063120345
100
AcDbArc
 50
121.7180974212
 51
123.0674589806
  0
LINE
  5
34A
330
1F
100
AcDbEntity
  8
0
  6
Continuous
 62
     7
370
    15
100
AcDbLine
 10
11231.4858171463
 20
5456.7361320956
 30
0.0
 11
9831.3996503562
 21
4090.2091116828
 31
0.0
  0
ARC
  5
34B
330
1F
100
AcDbEntity
  8
0
  6
Continuous
 62
     7
370
    15
100
AcDbCircle
 10
11247.7854532715
 20
5432.9512395317
 30
0.0
 40
28.83399473000926
100
AcDbArc
 50
123.0674426204
 51
124.4225938351
  0
LINE
  5
34C
330
1F
100
AcDbEntity
  8
0
  6
Continuous
 62
     7
370
    15
100
AcDbLine
 10
11230.9289478388
 20
5456.3447167692
 30
0.0
 11
9830.8427810486
 21
4089.8176963564
 31
0.0
  0
ARC
  5
34D
330
1F
100
AcDbEntity
  8
0
  6
Continuous
 62
     7
370
    15
100
AcDbCircle
 10
11247.6967810156
 20
5433.0808424505
 30
0.0
 40
28.67696074833122
100
AcDbArc
 50
124.422830838
 51
125.7828193939
  0
LINE
  5
34E
330
1F
100
AcDbEntity
  8
0
  6
Continuous
 62
     7
370
    15
100
AcDbLine
 10
11230.3824568811
 20
5455.9408445594
 30
0.0
 11
9830.2962900909
 21
4089.4138241466
 31
0.0
  0
ARC
  5
34F
330
1F
100
AcDbEntity
  8
0
  6
Continuous
 62
     7
370
    15
100
AcDbCircle
 10
11247.6133689066
 20
5433.1968804365
 30
0.0
 40
28.53405392253959
100
AcDbArc
 50
125.7831846755
 51
127.1477049239
  0
LINE
  5
350
330
1F
100
AcDbEntity
  8
0
  6
Continuous
 62
     7
370
    15
100
AcDbLine
 10
11229.8465246589
 20
5455.5246492517
 30
0.0
 11
9829.7603578687
 21
4088.9976288389
 31
0.0
  0
ARC
  5
351
330
1F
100
AcDbEntity
  8
0
  6
Continuous
 62
     7
370
    15
100
AcDbCircle
 10
11247.5363886771
 20
5433.2986725948
 30
0.0
 40
28.40643109121229
100
AcDbArc
 50
127.1479266102
 51
128.5166121996
  0
LINE
  5
352
330
1F
100
AcDbEntity
  8
0
  6
Continuous
 62
     7
370
    15
100
AcDbLine
 10
11229.3213290868
 20
5455.0962684966
 30
0.0
 11
9829.2351622966
 21
4088.5692480837
 31
0.0
  0
ARC
  5
353
330
1F
100
AcDbEntity
  8
0
  6
Continuous
 62
     7
370
    15
100
AcDbCircle
 10
11247.4747797635
 20
5433.3762412273
 30
0.0
 40
28.30737282142248
100
AcDbArc
 50
128.5168160049
 51
129.8886475713
  0
ARC
  5
354
330
1F
100
AcDbEntity
  8
0
  6
Continuous
 62
     7
370
    15
100
AcDbCircle
 10
11247.9749924313
 20
5436.0649564668
 30
0.0
 40
2.929366038239876
100
AcDbArc
 50
317.5968983179
 51
322.2026345953
  0
LINE
  5
355
330
1F
100
AcDbEntity
  8
0
  6
Continuous
 62
     7
370
    15
100
AcDbLine
 10
11250.1380914929
 20
5434.0895608518
 30
0.0
 11
9850.0519247027
 21
4067.562540439
 31
0.0
  0
ARC
  5
356
330
1F
100
AcDbEntity
  8
0
  6
Continuous
 62
     7
370
    15
100
AcDbCircle
 10
11247.9845476943
 20
5436.0564246445
 30
0.0
 40
2.916556886376645
100
AcDbArc
 50
312.9746580721
 51
317.5940800401
  0
LINE
  5
357
330
1F
100
AcDbEntity
  8
0
  6
Continuous
 62
     7
370
    15
100
AcDbLine
 10
11229.1268272785
 20
5454.9180861493
 30
0.0
 11
9829.0406604883
 21
4088.3910657365
 31
0.0
  0
ARC
  5
358
330
1F
100
AcDbEntity
  8
0
  6
Continuous
 62
     7
370
    15
100
AcDbCircle
 10
11231.1951325784
 20
5452.8555969325
 30
0.0
 40
2.920915709729075
100
AcDbArc
 50
129.9046840488
 51
135.0806713565
  0
LINE
  5
359
330
1F
100
AcDbEntity
  8
0
  6
Continuous
 62
     7
370
    15
100
AcDbLine
 10
3369.3675901591
 20
3556.020856202
 30
0.0
 11
3369.3675901591
 21
6556.020856202
 31
0.0
  0
LINE
  5
35A
330
1F
100
AcDbEntity
  8
0
  6
Continuous
 62
     7
370
    15
100
AcDbLine
 10
3368.7773055713
 20
3556.020856202
 30
0.0
 11
3368.7773055713
 21
6556.020856202
 31
0.0
  0
LINE
  5
35B
330
1F
100
AcDbEntity
  8
0
  6
Continuous
 62
     7
370
    15
100
AcDbLine
 10
3368.7773055713
 20
6556.020856202
 30
0.0
 11
3369.3675901591
 21
6556.020856202
 31
0.0
  0
LINE
  5
35C
330
1F
100
AcDbEntity
  8
0
  6
Continuous
 62
     7
370
    15
100
AcDbLine
 10
3368.7773055713
 20
3556.020856202
 30
0.0
 11
3369.3675901591
 21
3556.020856202
 31
0.0
  0
LINE
  5
35D
330
1F
100
AcDbEntity
  8
0
  6
Continuous
 62
     7
370
    15
100
AcDbLine
 10
3368.4831458809
 20
3556.020856202
 30
0.0
 11
3368.4831458809
 21
6556.020856202
 31
0.0
  0
LINE
  5
35E
330
1F
100
AcDbEntity
  8
0
  6
Continuous
 62
     7
370
    15
100
AcDbLine
 10
3368.4831458809
 20
6556.020856202
 30
0.0
 11
3368.7773055713
 21
6556.020856202
 31
0.0
  0
LINE
  5
35F
330
1F
100
AcDbEntity
  8
0
  6
Continuous
 62
     7
370
    15
100
AcDbLine
 10
3368.4831458809
 20
3556.020856202
 30
0.0
 11
3368.7773055713
 21
3556.020856202
 31
0.0
  0
LINE
  5
360
330
1F
100
AcDbEntity
  8
0
  6
Continuous
 62
     7
370
    15
100
AcDbLine
 10
3369.6617498495
 20
3556.020856202
 30
0.0
 11
3369.6617498495
 21
6556.020856202
 31
0.0
  0
LINE
  5
361
330
1F
100
AcDbEntity
  8
0
  6
Continuous
 62
     7
370
    15
100
AcDbLine
 10
3369.3675901591
 20
6556.020856202
 30
0.0
 11
3369.6617498495
 21
6556.020856202
 31
0.0
  0
LINE
  5
362
330
1F
100
AcDbEntity
  8
0
  6
Continuous
 62
     7
370
    15
100
AcDbLine
 10
3369.3675901591
 20
3556.020856202
 30
0.0
 11
3369.6617498495
 21
3556.020856202
 31
0.0
  0
LINE
  5
363
330
1F
100
AcDbEntity
  8
0
  6
Continuous
 62
     7
370
    15
100
AcDbLine
 10
3368.1909481961
 20
3556.020856202
 30
0.0
 11
3368.1909481961
 21
6556.020856202
 31
0.0
  0
LINE
  5
364
330
1F
100
AcDbEntity
  8
0
  6
Continuous
 62
     7
370
    15
100
AcDbLine
 10
3368.1909481961
 20
6556.020856202
 30
0.0
 11
3368.4831458809
 21
6556.020856202
 31
0.0
  0
LINE
  5
365
330
1F
100
AcDbEntity
  8
0
  6
Continuous
 62
     7
370
    15
100
AcDbLine
 10
3368.1909481961
 20
3556.020856202
 30
0.0
 11
3368.4831458809
 21
3556.020856202
 31
0.0
  0
LINE
  5
366
330
1F
100
AcDbEntity
  8
0
  6
Continuous
 62
     7
370
    15
100
AcDbLine
 10
3369.9539475342
 20
3556.020856202
 30
0.0
 11
3369.9539475342
 21
6556.020856202
 31
0.0
  0
LINE
  5
367
330
1F
100
AcDbEntity
  8
0
  6
Continuous
 62
     7
370
    15
100
AcDbLine
 10
3369.6617498495
 20
6556.020856202
 30
0.0
 11
3369.9539475342
 21
6556.020856202
 31
0.0
  0
LINE
  5
368
330
1F
100
AcDbEntity
  8
0
  6
Continuous
 62
     7
370
    15
100
AcDbLine
 10
3369.6617498495
 20
3556.020856202
 30
0.0
 11
3369.9539475342
 21
3556.020856202
 31
0.0
  0
LINE
  5
369
330
1F
100
AcDbEntity
  8
0
  6
Continuous
 62
     7
370
    15
100
AcDbLine
 10
3367.9016852834
 20
3556.020856202
 30
0.0
 11
3367.9016852834
 21
6556.020856202
 31
0.0
  0
LINE
  5
36A
330
1F
100
AcDbEntity
  8
0
  6
Continuous
 62
     7
370
    15
100
AcDbLine
 10
3367.9016852834
 20
6556.020856202
 30
0.0
 11
3368.1909481961
 21
6556.020856202
 31
0.0
  0
LINE
  5
36B
330
1F
100
AcDbEntity
  8
0
  6
Continuous
 62
     7
370
    15
100
AcDbLine
 10
3367.9016852834
 20
3556.020856202
 30
0.0
 11
3368.1909481961
 21
3556.020856202
 31
0.0
  0
LINE
  5
36C
330
1F
100
AcDbEntity
  8
0
  6
Continuous
 62
     7
370
    15
100
AcDbLine
 10
3370.2432103305
 20
3556.020856202
 30
0.0
 11
3370.2432103305
 21
6556.020856202
 31
0.0
  0
LINE
  5
36D
330
1F
100
AcDbEntity
  8
0
  6
Continuous
 62
     7
370
    15
100
AcDbLine
 10
3369.9539475342
 20
6556.020856202
 30
0.0
 11
3370.2432103305
 21
6556.020856202
 31
0.0
  0
LINE
  5
36E
330
1F
100
AcDbEntity
  8
0
  6
Continuous
 62
     7
370
    15
100
AcDbLine
 10
3369.9539475342
 20
3556.020856202
 30
0.0
 11
3370.2432103305
 21
3556.020856202
 31
0.0
  0
LINE
  5
36F
330
1F
100
AcDbEntity
  8
0
  6
Continuous
 62
     7
370
    15
100
AcDbLine
 10
3364.505433346
 20
3556.020856202
 30
0.0
 11
3364.505433346
 21
6556.020856202
 31
0.0
  0
LINE
  5
370
330
1F
100
AcDbEntity
  8
0
  6
Continuous
 62
     7
370
    15
100
AcDbLine
 10
3367.9016852834
 20
6556.020856202
 30
0.0
 11
3364.505433346
 21
6556.020856202
 31
0.0
  0
LINE
  5
371
330
1F
100
AcDbEntity
  8
0
  6
Continuous
 62
     7
370
    15
100
AcDbLine
 10
3367.9016852834
 20
3556.020856202
 30
0.0
 11
3364.505433346
 21
3556.020856202
 31
0.0
  0
LINE
  5
372
330
1F
100
AcDbEntity
  8
0
  6
Continuous
 62
     7
370
    15
100
AcDbLine
 10
3373.6394623843
 20
3556.020856202
 30
0.0
 11
3373.6394623843
 21
6556.020856202
 31
0.0
  0
LINE
  5
373
330
1F
100
AcDbEntity
  8
0
  6
Continuous
 62
     7
370
    15
100
AcDbLine
 10
3370.2432103305
 20
6556.020856202
 30
0.0
 11
3373.6394623843
 21
6556.020856202
 31
0.0
  0
LINE
  5
374
330
1F
100
AcDbEntity
  8
0
  6
Continuous
 62
     7
370
    15
100
AcDbLine
 10
3370.2432103305
 20
3556.020856202
 30
0.0
 11
3373.6394623843
 21
3556.020856202
 31
0.0
  0
LINE
  5
375
330
1F
100
AcDbEntity
  8
0
  6
Continuous
 62
     7
370
    15
100
AcDbLine
 10
3364.1345033971
 20
3556.020856202
 30
0.0
 11
3364.1345033971
 21
6556.020856202
 31
0.0
  0
LINE
  5
376
330
1F
100
AcDbEntity
  8
0
  6
Continuous
 62
     7
370
    15
100
AcDbLine
 10
3364.1345033971
 20
6556.020856202
 30
0.0
 11
3364.505433346
 21
6556.020856202
 31
0.0
  0
LINE
  5
377
330
1F
100
AcDbEntity
  8
0
  6
Continuous
 62
     7
370
    15
100
AcDbLine
 10
3364.1345033971
 20
3556.020856202
 30
0.0
 11
3364.505433346
 21
3556.020856202
 31
0.0
  0
LINE
  5
378
330
1F
100
AcDbEntity
  8
0
  6
Continuous
 62
     7
370
    15
100
AcDbLine
 10
3374.0103923333
 20
3556.020856202
 30
0.0
 11
3374.0103923333
 21
6556.020856202
 31
0.0
  0
LINE
  5
379
330
1F
100
AcDbEntity
  8
0
  6
Continuous
 62
     7
370
    15
100
AcDbLine
 10
3373.6394623843
 20
6556.020856202
 30
0.0
 11
3374.0103923333
 21
6556.020856202
 31
0.0
  0
LINE
  5
37A
330
1F
100
AcDbEntity
  8
0
  6
Continuous
 62
     7
370
    15
100
AcDbLine
 10
3373.6394623843
 20
3556.020856202
 30
0.0
 11
3374.0103923333
 21
3556.020856202
 31
0.0
  0
LINE
  5
37B
330
1F
100
AcDbEntity
  8
0
  6
Continuous
 62
     7
370
    15
100
AcDbLine
 10
3363.7722869021
 20
3556.020856202
 30
0.0
 11
3363.7722869021
 21
6556.020856202
 31
0.0
  0
LINE
  5
37C
330
1F
100
AcDbEntity
  8
0
  6
Continuous
 62
     7
370
    15
100
AcDbLine
 10
3363.7722869021
 20
6556.020856202
 30
0.0
 11
3364.1345033971
 21
6556.020856202
 31
0.0
  0
LINE
  5
37D
330
1F
100
AcDbEntity
  8
0
  6
Continuous
 62
     7
370
    15
100
AcDbLine
 10
3363.7722869021
 20
3556.020856202
 30
0.0
 11
3364.1345033971
 21
3556.020856202
 31
0.0
  0
LINE
  5
37E
330
1F
100
AcDbEntity
  8
0
  6
Continuous
 62
     7
370
    15
100
AcDbLine
 10
3374.3726088283
 20
3556.020856202
 30
0.0
 11
3374.3726088283
 21
6556.020856202
 31
0.0
  0
LINE
  5
37F
330
1F
100
AcDbEntity
  8
0
  6
Continuous
 62
     7
370
    15
100
AcDbLine
 10
3374.0103923333
 20
6556.020856202
 30
0.0
 11
3374.3726088283
 21
6556.020856202
 31
0.0
  0
LINE
  5
380
330
1F
100
AcDbEntity
  8
0
  6
Continuous
 62
     7
370
    15
100
AcDbLine
 10
3374.0103923333
 20
3556.020856202
 30
0.0
 11
3374.3726088283
 21
3556.020856202
 31
0.0
  0
LINE
  5
381
330
1F
100
AcDbEntity
  8
0
  6
Continuous
 62
     7
370
    15
100
AcDbLine
 10
3363.4208313738
 20
3556.020856202
 30
0.0
 11
3363.4208313738
 21
6556.020856202
 31
0.0
  0
LINE
  5
382
330
1F
100
AcDbEntity
  8
0
  6
Continuous
 62
     7
370
    15
100
AcDbLine
 10
3363.4208313738
 20
6556.020856202
 30
0.0
 11
3363.7722869021
 21
6556.020856202
 31
0.0
  0
LINE
  5
383
330
1F
100
AcDbEntity
  8
0
  6
Continuous
 62
     7
370
    15
100
AcDbLine
 10
3363.4208313738
 20
3556.020856202
 30
0.0
 11
3363.7722869021
 21
3556.020856202
 31
0.0
  0
LINE
  5
384
330
1F
100
AcDbEntity
  8
0
  6
Continuous
 62
     7
370
    15
100
AcDbLine
 10
3374.7240643565
 20
3556.020856202
 30
0.0
 11
3374.7240643565
 21
6556.020856202
 31
0.0
  0
LINE
  5
385
330
1F
100
AcDbEntity
  8
0
  6
Continuous
 62
     7
370
    15
100
AcDbLine
 10
3374.3726088283
 20
6556.020856202
 30
0.0
 11
3374.7240643565
 21
6556.020856202
 31
0.0
  0
LINE
  5
386
330
1F
100
AcDbEntity
  8
0
  6
Continuous
 62
     7
370
    15
100
AcDbLine
 10
3374.3726088283
 20
3556.020856202
 30
0.0
 11
3374.7240643565
 21
3556.020856202
 31
0.0
  0
LINE
  5
387
330
1F
100
AcDbEntity
  8
0
  6
Continuous
 62
     7
370
    15
100
AcDbLine
 10
3363.0821228576
 20
3556.020856202
 30
0.0
 11
3363.0821228576
 21
6556.020856202
 31
0.0
  0
LINE
  5
388
330
1F
100
AcDbEntity
  8
0
  6
Continuous
 62
     7
370
    15
100
AcDbLine
 10
3363.0821228576
 20
6556.020856202
 30
0.0
 11
3363.4208313738
 21
6556.020856202
 31
0.0
  0
LINE
  5
389
330
1F
100
AcDbEntity
  8
0
  6
Continuous
 62
     7
370
    15
100
AcDbLine
 10
3363.0821228576
 20
3556.020856202
 30
0.0
 11
3363.4208313738
 21
3556.020856202
 31
0.0
  0
LINE
  5
38A
330
1F
100
AcDbEntity
  8
0
  6
Continuous
 62
     7
370
    15
100
AcDbLine
 10
3375.0627728728
 20
3556.020856202
 30
0.0
 11
3375.0627728728
 21
6556.020856202
 31
0.0
  0
LINE
  5
38B
330
1F
100
AcDbEntity
  8
0
  6
Continuous
 62
     7
370
    15
100
AcDbLine
 10
3374.7240643565
 20
6556.020856202
 30
0.0
 11
3375.0627728728
 21
6556.020856202
 31
0.0
  0
LINE
  5
38C
330
1F
100
AcDbEntity
  8
0
  6
Continuous
 62
     7
370
    15
100
AcDbLine
 10
3374.7240643565
 20
3556.020856202
 30
0.0
 11
3375.0627728728
 21
3556.020856202
 31
0.0
  0
LINE
  5
38D
330
1F
100
AcDbEntity
  8
0
  6
Continuous
 62
     7
370
    15
100
AcDbLine
 10
3359.7292959307
 20
3556.020856202
 30
0.0
 11
3359.7292959307
 21
6556.020856202
 31
0.0
  0
LINE
  5
38E
330
1F
100
AcDbEntity
  8
0
  6
Continuous
 62
     7
370
    15
100
AcDbLine
 10
3359.7292959307
 20
6556.020856202
 30
0.0
 11
3363.0821228576
 21
6556.020856202
 31
0.0
  0
LINE
  5
38F
330
1F
100
AcDbEntity
  8
0
  6
Continuous
 62
     7
370
    15
100
AcDbLine
 10
3359.7292959307
 20
3556.020856202
 30
0.0
 11
3363.0821228576
 21
3556.020856202
 31
0.0
  0
LINE
  5
390
330
1F
100
AcDbEntity
  8
0
  6
Continuous
 62
     7
370
    15
100
AcDbLine
 10
3378.4155997996
 20
3556.020856202
 30
0.0
 11
3378.4155997996
 21
6556.020856202
 31
0.0
  0
LINE
  5
391
330
1F
100
AcDbEntity
  8
0
  6
Continuous
 62
     7
370
    15
100
AcDbLine
 10
3378.4155997996
 20
6556.020856202
 30
0.0
 11
3375.0627728728
 21
6556.020856202
 31
0.0
  0
LINE
  5
392
330
1F
100
AcDbEntity
  8
0
  6
Continuous
 62
     7
370
    15
100
AcDbLine
 10
3378.4155997996
 20
3556.020856202
 30
0.0
 11
3375.0627728728
 21
3556.020856202
 31
0.0
  0
LINE
  5
393
330
1F
100
AcDbEntity
  8
0
  6
Continuous
 62
     7
370
    15
100
AcDbLine
 10
3359.4653321047
 20
3556.020856202
 30
0.0
 11
3359.4653321047
 21
6556.020856202
 31
0.0
  0
LINE
  5
394
330
1F
100
AcDbEntity
  8
0
  6
Continuous
 62
     7
370
    15
100
AcDbLine
 10
3359.4653321047
 20
6556.020856202
 30
0.0
 11
3359.7292959307
 21
6556.020856202
 31
0.0
  0
LINE
  5
395
330
1F
100
AcDbEntity
  8
0
  6
Continuous
 62
     7
370
    15
100
AcDbLine
 10
3359.4653321047
 20
3556.020856202
 30
0.0
 11
3359.7292959307
 21
3556.020856202
 31
0.0
  0
LINE
  5
396
330
1F
100
AcDbEntity
  8
0
  6
Continuous
 62
     7
370
    15
100
AcDbLine
 10
3378.6795636256
 20
3556.020856202
 30
0.0
 11
3378.6795636256
 21
6556.020856202
 31
0.0
  0
LINE
  5
397
330
1F
100
AcDbEntity
  8
0
  6
Continuous
 62
     7
370
    15
100
AcDbLine
 10
3378.4155997996
 20
6556.020856202
 30
0.0
 11
3378.6795636256
 21
6556.020856202
 31
0.0
  0
LINE
  5
398
330
1F
100
AcDbEntity
  8
0
  6
Continuous
 62
     7
370
    15
100
AcDbLine
 10
3378.4155997996
 20
3556.020856202
 30
0.0
 11
3378.6795636256
 21
3556.020856202
 31
0.0
  0
LINE
  5
399
330
1F
100
AcDbEntity
  8
0
  6
Continuous
 62
     7
370
    15
100
AcDbLine
 10
3359.211990944
 20
3556.020856202
 30
0.0
 11
3359.211990944
 21
6556.020856202
 31
0.0
  0
LINE
  5
39A
330
1F
100
AcDbEntity
  8
0
  6
Continuous
 62
     7
370
    15
100
AcDbLine
 10
3359.211990944
 20
6556.020856202
 30
0.0
 11
3359.4653321047
 21
6556.020856202
 31
0.0
  0
LINE
  5
39B
330
1F
100
AcDbEntity
  8
0
  6
Continuous
 62
     7
370
    15
100
AcDbLine
 10
3359.211990944
 20
3556.020856202
 30
0.0
 11
3359.4653321047
 21
3556.020856202
 31
0.0
  0
LINE
  5
39C
330
1F
100
AcDbEntity
  8
0
  6
Continuous
 62
     7
370
    15
100
AcDbLine
 10
3378.9329047863
 20
3556.020856202
 30
0.0
 11
3378.9329047863
 21
6556.020856202
 31
0.0
  0
LINE
  5
39D
330
1F
100
AcDbEntity
  8
0
  6
Continuous
 62
     7
370
    15
100
AcDbLine
 10
3378.6795636256
 20
6556.020856202
 30
0.0
 11
3378.9329047863
 21
6556.020856202
 31
0.0
  0
LINE
  5
39E
330
1F
100
AcDbEntity
  8
0
  6
Continuous
 62
     7
370
    15
100
AcDbLine
 10
3378.6795636256
 20
3556.020856202
 30
0.0
 11
3378.9329047863
 21
3556.020856202
 31
0.0
  0
LINE
  5
39F
330
1F
100
AcDbEntity
  8
0
  6
Continuous
 62
     7
370
    15
100
AcDbLine
 10
3358.9702130844
 20
3556.020856202
 30
0.0
 11
3358.9702130844
 21
6556.020856202
 31
0.0
  0
LINE
  5
3A0
330
1F
100
AcDbEntity
  8
0
  6
Continuous
 62
     7
370
    15
100
AcDbLine
 10
3358.9702130844
 20
6556.020856202
 30
0.0
 11
3359.211990944
 21
6556.020856202
 31
0.0
  0
LINE
  5
3A1
330
1F
100
AcDbEntity
  8
0
  6
Continuous
 62
     7
370
    15
100
AcDbLine
 10
3358.9702130844
 20
3556.020856202
 30
0.0
 11
3359.211990944
 21
3556.020856202
 31
0.0
  0
LINE
  5
3A2
330
1F
100
AcDbEntity
  8
0
  6
Continuous
 62
     7
370
    15
100
AcDbLine
 10
3379.174682646
 20
3556.020856202
 30
0.0
 11
3379.174682646
 21
6556.020856202
 31
0.0
  0
LINE
  5
3A3
330
1F
100
AcDbEntity
  8
0
  6
Continuous
 62
     7
370
    15
100
AcDbLine
 10
3378.9329047863
 20
6556.020856202
 30
0.0
 11
3379.174682646
 21
6556.020856202
 31
0.0
  0
LINE
  5
3A4
330
1F
100
AcDbEntity
  8
0
  6
Continuous
 62
     7
370
    15
100
AcDbLine
 10
3378.9329047863
 20
3556.020856202
 30
0.0
 11
3379.174682646
 21
3556.020856202
 31
0.0
  0
LINE
  5
3A5
330
1F
100
AcDbEntity
  8
0
  6
Continuous
 62
     7
370
    15
100
AcDbLine
 10
3358.7408972521
 20
3556.020856202
 30
0.0
 11
3358.7408972521
 21
6556.020856202
 31
0.0
  0
LINE
  5
3A6
330
1F
100
AcDbEntity
  8
0
  6
Continuous
 62
     7
370
    15
100
AcDbLine
 10
3358.7408972521
 20
6556.020856202
 30
0.0
 11
3358.9702130844
 21
6556.020856202
 31
0.0
  0
LINE
  5
3A7
330
1F
100
AcDbEntity
  8
0
  6
Continuous
 62
     7
370
    15
100
AcDbLine
 10
3358.7408972521
 20
3556.020856202
 30
0.0
 11
3358.9702130844
 21
3556.020856202
 31
0.0
  0
LINE
  5
3A8
330
1F
100
AcDbEntity
  8
0
  6
Continuous
 62
     7
370
    15
100
AcDbLine
 10
3379.4039984782
 20
3556.020856202
 30
0.0
 11
3379.4039984782
 21
6556.020856202
 31
0.0
  0
LINE
  5
3A9
330
1F
100
AcDbEntity
  8
0
  6
Continuous
 62
     7
370
    15
100
AcDbLine
 10
3379.174682646
 20
6556.020856202
 30
0.0
 11
3379.4039984782
 21
6556.020856202
 31
0.0
  0
LINE
  5
3AA
330
1F
100
AcDbEntity
  8
0
  6
Continuous
 62
     7
370
    15
100
AcDbLine
 10
3379.174682646
 20
3556.020856202
 30
0.0
 11
3379.4039984782
 21
3556.020856202
 31
0.0
  0
LINE
  5
3AB
330
1F
100
AcDbEntity
  8
0
  6
Continuous
 62
     7
370
    15
100
AcDbLine
 10
3358.5248965387
 20
3556.020856202
 30
0.0
 11
3358.5248965387
 21
6556.020856202
 31
0.0
  0
LINE
  5
3AC
330
1F
100
AcDbEntity
  8
0
  6
Continuous
 62
     7
370
    15
100
AcDbLine
 10
3358.5248965387
 20
6556.020856202
 30
0.0
 11
3358.7408972521
 21
6556.020856202
 31
0.0
  0
LINE
  5
3AD
330
1F
100
AcDbEntity
  8
0
  6
Continuous
 62
     7
370
    15
100
AcDbLine
 10
3358.5248965387
 20
3556.020856202
 30
0.0
 11
3358.7408972521
 21
3556.020856202
 31
0.0
  0
LINE
  5
3AE
330
1F
100
AcDbEntity
  8
0
  6
Continuous
 62
     7
370
    15
100
AcDbLine
 10
3379.6199991916
 20
3556.020856202
 30
0.0
 11
3379.6199991916
 21
6556.020856202
 31
0.0
  0
LINE
  5
3AF
330
1F
100
AcDbEntity
  8
0
  6
Continuous
 62
     7
370
    15
100
AcDbLine
 10
3379.4039984782
 20
6556.020856202
 30
0.0
 11
3379.6199991916
 21
6556.020856202
 31
0.0
  0
LINE
  5
3B0
330
1F
100
AcDbEntity
  8
0
  6
Continuous
 62
     7
370
    15
100
AcDbLine
 10
3379.4039984782
 20
3556.020856202
 30
0.0
 11
3379.6199991916
 21
3556.020856202
 31
0.0
  0
LINE
  5
3B1
330
1F
100
AcDbEntity
  8
0
  6
Continuous
 62
     7
370
    15
100
AcDbLine
 10
3358.3230128129
 20
3556.020856202
 30
0.0
 11
3358.3230128129
 21
6556.020856202
 31
0.0
  0
LINE
  5
3B2
330
1F
100
AcDbEntity
  8
0
  6
Continuous
 62
     7
370
    15
100
AcDbLine
 10
3358.3230128129
 20
6556.020856202
 30
0.0
 11
3358.5248965387
 21
6556.020856202
 31
0.0
  0
LINE
  5
3B3
330
1F
100
AcDbEntity
  8
0
  6
Continuous
 62
     7
370
    15
100
AcDbLine
 10
3358.3230128129
 20
3556.020856202
 30
0.0
 11
3358.5248965387
 21
3556.020856202
 31
0.0
  0
LINE
  5
3B4
330
1F
100
AcDbEntity
  8
0
  6
Continuous
 62
     7
370
    15
100
AcDbLine
 10
3379.8218829174
 20
3556.020856202
 30
0.0
 11
3379.8218829174
 21
6556.020856202
 31
0.0
  0
LINE
  5
3B5
330
1F
100
AcDbEntity
  8
0
  6
Continuous
 62
     7
370
    15
100
AcDbLine
 10
3379.6199991916
 20
6556.020856202
 30
0.0
 11
3379.8218829174
 21
6556.020856202
 31
0.0
  0
LINE
  5
3B6
330
1F
100
AcDbEntity
  8
0
  6
Continuous
 62
     7
370
    15
100
AcDbLine
 10
3379.6199991916
 20
3556.020856202
 30
0.0
 11
3379.8218829174
 21
3556.020856202
 31
0.0
  0
LINE
  5
3B7
330
1F
100
AcDbEntity
  8
0
  6
Continuous
 62
     7
370
    15
100
AcDbLine
 10
3358.1359967206
 20
3556.020856202
 30
0.0
 11
3358.1359967206
 21
6556.020856202
 31
0.0
  0
LINE
  5
3B8
330
1F
100
AcDbEntity
  8
0
  6
Continuous
 62
     7
370
    15
100
AcDbLine
 10
3358.1359967206
 20
6556.020856202
 30
0.0
 11
3358.3230128129
 21
6556.020856202
 31
0.0
  0
LINE
  5
3B9
330
1F
100
AcDbEntity
  8
0
  6
Continuous
 62
     7
370
    15
100
AcDbLine
 10
3358.1359967206
 20
3556.020856202
 30
0.0
 11
3358.3230128129
 21
3556.020856202
 31
0.0
  0
LINE
  5
3BA
330
1F
100
AcDbEntity
  8
0
  6
Continuous
 62
     7
370
    15
100
AcDbLine
 10
3380.0088990097
 20
3556.020856202
 30
0.0
 11
3380.0088990097
 21
6556.020856202
 31
0.0
  0
LINE
  5
3BB
330
1F
100
AcDbEntity
  8
0
  6
Continuous
 62
     7
370
    15
100
AcDbLine
 10
3379.8218829174
 20
6556.020856202
 30
0.0
 11
3380.0088990097
 21
6556.020856202
 31
0.0
  0
LINE
  5
3BC
330
1F
100
AcDbEntity
  8
0
  6
Continuous
 62
     7
370
    15
100
AcDbLine
 10
3379.8218829174
 20
3556.020856202
 30
0.0
 11
3380.0088990097
 21
3556.020856202
 31
0.0
  0
LINE
  5
3BD
330
1F
100
AcDbEntity
  8
0
  6
Continuous
 62
     7
370
    15
100
AcDbLine
 10
3357.9645430286
 20
3556.020856202
 30
0.0
 11
3357.9645430286
 21
6556.020856202
 31
0.0
  0
LINE
  5
3BE
330
1F
100
AcDbEntity
  8
0
  6
Continuous
 62
     7
370
    15
100
AcDbLine
 10
3357.9645430286
 20
6556.020856202
 30
0.0
 11
3358.1359967206
 21
6556.020856202
 31
0.0
  0
LINE
  5
3BF
330
1F
100
AcDbEntity
  8
0
  6
Continuous
 62
     7
370
    15
100
AcDbLine
 10
3357.9645430286
 20
3556.020856202
 30
0.0
 11
3358.1359967206
 21
3556.020856202
 31
0.0
  0
LINE
  5
3C0
330
1F
100
AcDbEntity
  8
0
  6
Continuous
 62
     7
370
    15
100
AcDbLine
 10
3380.1803527017
 20
3556.020856202
 30
0.0
 11
3380.1803527017
 21
6556.020856202
 31
0.0
  0
LINE
  5
3C1
330
1F
100
AcDbEntity
  8
0
  6
Continuous
 62
     7
370
    15
100
AcDbLine
 10
3380.0088990097
 20
6556.020856202
 30
0.0
 11
3380.1803527017
 21
6556.020856202
 31
0.0
  0
LINE
  5
3C2
330
1F
100
AcDbEntity
  8
0
  6
Continuous
 62
     7
370
    15
100
AcDbLine
 10
3380.0088990097
 20
3556.020856202
 30
0.0
 11
3380.1803527017
 21
3556.020856202
 31
0.0
  0
LINE
  5
3C3
330
1F
100
AcDbEntity
  8
0
  6
Continuous
 62
     7
370
    15
100
AcDbLine
 10
3355.1842452575
 20
3556.020856202
 30
0.0
 11
3355.1842452575
 21
6556.020856202
 31
0.0
  0
LINE
  5
3C4
330
1F
100
AcDbEntity
  8
0
  6
Continuous
 62
     7
370
    15
100
AcDbLine
 10
3355.1842452575
 20
6556.020856202
 30
0.0
 11
3357.9645430286
 21
6556.020856202
 31
0.0
  0
LINE
  5
3C5
330
1F
100
AcDbEntity
  8
0
  6
Continuous
 62
     7
370
    15
100
AcDbLine
 10
3355.1842452575
 20
3556.020856202
 30
0.0
 11
3357.9645430286
 21
3556.020856202
 31
0.0
  0
LINE
  5
3C6
330
1F
100
AcDbEntity
  8
0
  6
Continuous
 62
     7
370
    15
100
AcDbLine
 10
3382.9606504728
 20
3556.020856202
 30
0.0
 11
3382.9606504728
 21
6556.020856202
 31
0.0
  0
LINE
  5
3C7
330
1F
100
AcDbEntity
  8
0
  6
Continuous
 62
     7
370
    15
100
AcDbLine
 10
3382.9606504728
 20
6556.020856202
 30
0.0
 11
3380.1803527017
 21
6556.020856202
 31
0.0
  0
LINE
  5
3C8
330
1F
100
AcDbEntity
  8
0
  6
Continuous
 62
     7
370
    15
100
AcDbLine
 10
3382.9606504728
 20
3556.020856202
 30
0.0
 11
3380.1803527017
 21
3556.020856202
 31
0.0
  0
LINE
  5
3C9
330
1F
100
AcDbEntity
  8
0
  6
Continuous
 62
     7
370
    15
100
AcDbLine
 10
3355.0553688397
 20
3556.020856202
 30
0.0
 11
3355.0553688397
 21
6556.020856202
 31
0.0
  0
LINE
  5
3CA
330
1F
100
AcDbEntity
  8
0
  6
Continuous
 62
     7
370
    15
100
AcDbLine
 10
3355.0553688397
 20
6556.020856202
 30
0.0
 11
3355.1842452575
 21
6556.020856202
 31
0.0
  0
LINE
  5
3CB
330
1F
100
AcDbEntity
  8
0
  6
Continuous
 62
     7
370
    15
100
AcDbLine
 10
3355.0553688397
 20
3556.020856202
 30
0.0
 11
3355.1842452575
 21
3556.020856202
 31
0.0
  0
LINE
  5
3CC
330
1F
100
AcDbEntity
  8
0
  6
Continuous
 62
     7
370
    15
100
AcDbLine
 10
3383.0895268907
 20
3556.020856202
 30
0.0
 11
3383.0895268907
 21
6556.020856202
 31
0.0
  0
LINE
  5
3CD
330
1F
100
AcDbEntity
  8
0
  6
Continuous
 62
     7
370
    15
100
AcDbLine
 10
3382.9606504728
 20
6556.020856202
 30
0.0
 11
3383.0895268907
 21
6556.020856202
 31
0.0
  0
LINE
  5
3CE
330
1F
100
AcDbEntity
  8
0
  6
Continuous
 62
     7
370
    15
100
AcDbLine
 10
3382.9606504728
 20
3556.020856202
 30
0.0
 11
3383.0895268907
 21
3556.020856202
 31
0.0
  0
LINE
  5
3CF
330
1F
100
AcDbEntity
  8
0
  6
Continuous
 62
     7
370
    15
100
AcDbLine
 10
3354.9377716695
 20
3556.020856202
 30
0.0
 11
3354.9377716695
 21
6556.020856202
 31
0.0
  0
LINE
  5
3D0
330
1F
100
AcDbEntity
  8
0
  6
Continuous
 62
     7
370
    15
100
AcDbLine
 10
3354.9377716695
 20
6556.020856202
 30
0.0
 11
3355.0553688397
 21
6556.020856202
 31
0.0
  0
LINE
  5
3D1
330
1F
100
AcDbEntity
  8
0
  6
Continuous
 62
     7
370
    15
100
AcDbLine
 10
3354.9377716695
 20
3556.020856202
 30
0.0
 11
3355.0553688397
 21
3556.020856202
 31
0.0
  0
LINE
  5
3D2
330
1F
100
AcDbEntity
  8
0
  6
Continuous
 62
     7
370
    15
100
AcDbLine
 10
3383.2071240608
 20
3556.020856202
 30
0.0
 11
3383.2071240608
 21
6556.020856202
 31
0.0
  0
LINE
  5
3D3
330
1F
100
AcDbEntity
  8
0
  6
Continuous
 62
     7
370
    15
100
AcDbLine
 10
3383.0895268907
 20
6556.020856202
 30
0.0
 11
3383.2071240608
 21
6556.020856202
 31
0.0
  0
LINE
  5
3D4
330
1F
100
AcDbEntity
  8
0
  6
Continuous
 62
     7
370
    15
100
AcDbLine
 10
3383.0895268907
 20
3556.020856202
 30
0.0
 11
3383.2071240608
 21
3556.020856202
 31
0.0
  0
LINE
  5
3D5
330
1F
100
AcDbEntity
  8
0
  6
Continuous
 62
     7
370
    15
100
AcDbLine
 10
3354.8317499076
 20
3556.020856202
 30
0.0
 11
3354.8317499076
 21
6556.020856202
 31
0.0
  0
LINE
  5
3D6
330
1F
100
AcDbEntity
  8
0
  6
Continuous
 62
     7
370
    15
100
AcDbLine
 10
3354.8317499076
 20
6556.020856202
 30
0.0
 11
3354.9377716695
 21
6556.020856202
 31
0.0
  0
LINE
  5
3D7
330
1F
100
AcDbEntity
  8
0
  6
Continuous
 62
     7
370
    15
100
AcDbLine
 10
3354.8317499076
 20
3556.020856202
 30
0.0
 11
3354.9377716695
 21
3556.020856202
 31
0.0
  0
LINE
  5
3D8
330
1F
100
AcDbEntity
  8
0
  6
Continuous
 62
     7
370
    15
100
AcDbLine
 10
3383.3131458227
 20
3556.020856202
 30
0.0
 11
3383.3131458227
 21
6556.020856202
 31
0.0
  0
LINE
  5
3D9
330
1F
100
AcDbEntity
  8
0
  6
Continuous
 62
     7
370
    15
100
AcDbLine
 10
3383.2071240608
 20
6556.020856202
 30
0.0
 11
3383.3131458227
 21
6556.020856202
 31
0.0
  0
LINE
  5
3DA
330
1F
100
AcDbEntity
  8
0
  6
Continuous
 62
     7
370
    15
100
AcDbLine
 10
3383.2071240608
 20
3556.020856202
 30
0.0
 11
3383.3131458227
 21
3556.020856202
 31
0.0
  0
LINE
  5
3DB
330
1F
100
AcDbEntity
  8
0
  6
Continuous
 62
     7
370
    15
100
AcDbLine
 10
3354.7375689809
 20
3556.020856202
 30
0.0
 11
3354.7375689809
 21
6556.020856202
 31
0.0
  0
LINE
  5
3DC
330
1F
100
AcDbEntity
  8
0
  6
Continuous
 62
     7
370
    15
100
AcDbLine
 10
3354.7375689809
 20
6556.020856202
 30
0.0
 11
3354.8317499076
 21
6556.020856202
 31
0.0
  0
LINE
  5
3DD
330
1F
100
AcDbEntity
  8
0
  6
Continuous
 62
     7
370
    15
100
AcDbLine
 10
3354.7375689809
 20
3556.020856202
 30
0.0
 11
3354.8317499076
 21
3556.020856202
 31
0.0
  0
LINE
  5
3DE
330
1F
100
AcDbEntity
  8
0
  6
Continuous
 62
     7
370
    15
100
AcDbLine
 10
3383.4073267494
 20
3556.020856202
 30
0.0
 11
3383.4073267494
 21
6556.020856202
 31
0.0
  0
LINE
  5
3DF
330
1F
100
AcDbEntity
  8
0
  6
Continuous
 62
     7
370
    15
100
AcDbLine
 10
3383.3131458227
 20
6556.020856202
 30
0.0
 11
3383.4073267494
 21
6556.020856202
 31
0.0
  0
LINE
  5
3E0
330
1F
100
AcDbEntity
  8
0
  6
Continuous
 62
     7
370
    15
100
AcDbLine
 10
3383.3131458227
 20
3556.020856202
 30
0.0
 11
3383.4073267494
 21
3556.020856202
 31
0.0
  0
LINE
  5
3E1
330
1F
100
AcDbEntity
  8
0
  6
Continuous
 62
     7
370
    15
100
AcDbLine
 10
3354.6554663767
 20
3556.020856202
 30
0.0
 11
3354.6554663767
 21
6556.020856202
 31
0.0
  0
LINE
  5
3E2
330
1F
100
AcDbEntity
  8
0
  6
Continuous
 62
     7
370
    15
100
AcDbLine
 10
3354.6554663767
 20
6556.020856202
 30
0.0
 11
3354.7375689809
 21
6556.020856202
 31
0.0
  0
LINE
  5
3E3
330
1F
100
AcDbEntity
  8
0
  6
Continuous
 62
     7
370
    15
100
AcDbLine
 10
3354.6554663767
 20
3556.020856202
 30
0.0
 11
3354.7375689809
 21
3556.020856202
 31
0.0
  0
LINE
  5
3E4
330
1F
100
AcDbEntity
  8
0
  6
Continuous
 62
     7
370
    15
100
AcDbLine
 10
3383.4894293536
 20
3556.020856202
 30
0.0
 11
3383.4894293536
 21
6556.020856202
 31
0.0
  0
LINE
  5
3E5
330
1F
100
AcDbEntity
  8
0
  6
Continuous
 62
     7
370
    15
100
AcDbLine
 10
3383.4073267494
 20
6556.020856202
 30
0.0
 11
3383.4894293536
 21
6556.020856202
 31
0.0
  0
LINE
  5
3E6
330
1F
100
AcDbEntity
  8
0
  6
Continuous
 62
     7
370
    15
100
AcDbLine
 10
3383.4073267494
 20
3556.020856202
 30
0.0
 11
3383.4894293536
 21
3556.020856202
 31
0.0
  0
LINE
  5
3E7
330
1F
100
AcDbEntity
  8
0
  6
Continuous
 62
     7
370
    15
100
AcDbLine
 10
3354.5856488486
 20
3556.020856202
 30
0.0
 11
3354.5856488486
 21
6556.020856202
 31
0.0
  0
LINE
  5
3E8
330
1F
100
AcDbEntity
  8
0
  6
Continuous
 62
     7
370
    15
100
AcDbLine
 10
3354.5856488486
 20
6556.020856202
 30
0.0
 11
3354.6554663767
 21
6556.020856202
 31
0.0
  0
LINE
  5
3E9
330
1F
100
AcDbEntity
  8
0
  6
Continuous
 62
     7
370
    15
100
AcDbLine
 10
3354.5856488486
 20
3556.020856202
 30
0.0
 11
3354.6554663767
 21
3556.020856202
 31
0.0
  0
LINE
  5
3EA
330
1F
100
AcDbEntity
  8
0
  6
Continuous
 62
     7
370
    15
100
AcDbLine
 10
3383.5592468818
 20
3556.020856202
 30
0.0
 11
3383.5592468818
 21
6556.020856202
 31
0.0
  0
LINE
  5
3EB
330
1F
100
AcDbEntity
  8
0
  6
Continuous
 62
     7
370
    15
100
AcDbLine
 10
3383.4894293536
 20
6556.020856202
 30
0.0
 11
3383.5592468818
 21
6556.020856202
 31
0.0
  0
LINE
  5
3EC
330
1F
100
AcDbEntity
  8
0
  6
Continuous
 62
     7
370
    15
100
AcDbLine
 10
3383.4894293536
 20
3556.020856202
 30
0.0
 11
3383.5592468818
 21
3556.020856202
 31
0.0
  0
LINE
  5
3ED
330
1F
100
AcDbEntity
  8
0
  6
Continuous
 62
     7
370
    15
100
AcDbLine
 10
3354.5282905538
 20
3556.020856202
 30
0.0
 11
3354.5282905538
 21
6556.020856202
 31
0.0
  0
LINE
  5
3EE
330
1F
100
AcDbEntity
  8
0
  6
Continuous
 62
     7
370
    15
100
AcDbLine
 10
3354.5282905538
 20
6556.020856202
 30
0.0
 11
3354.5856488486
 21
6556.020856202
 31
0.0
  0
LINE
  5
3EF
330
1F
100
AcDbEntity
  8
0
  6
Continuous
 62
     7
370
    15
100
AcDbLine
 10
3354.5282905538
 20
3556.020856202
 30
0.0
 11
3354.5856488486
 21
3556.020856202
 31
0.0
  0
LINE
  5
3F0
330
1F
100
AcDbEntity
  8
0
  6
Continuous
 62
     7
370
    15
100
AcDbLine
 10
3383.6166051765
 20
3556.020856202
 30
0.0
 11
3383.6166051765
 21
6556.020856202
 31
0.0
  0
LINE
  5
3F1
330
1F
100
AcDbEntity
  8
0
  6
Continuous
 62
     7
370
    15
100
AcDbLine
 10
3383.5592468818
 20
6556.020856202
 30
0.0
 11
3383.6166051765
 21
6556.020856202
 31
0.0
  0
LINE
  5
3F2
330
1F
100
AcDbEntity
  8
0
  6
Continuous
 62
     7
370
    15
100
AcDbLine
 10
3383.5592468818
 20
3556.020856202
 30
0.0
 11
3383.6166051765
 21
3556.020856202
 31
0.0
  0
LINE
  5
3F3
330
1F
100
AcDbEntity
  8
0
  6
Continuous
 62
     7
370
    15
100
AcDbLine
 10
3354.4835358475
 20
3556.020856202
 30
0.0
 11
3354.4835358475
 21
6556.020856202
 31
0.0
  0
LINE
  5
3F4
330
1F
100
AcDbEntity
  8
0
  6
Continuous
 62
     7
370
    15
100
AcDbLine
 10
3354.4835358475
 20
6556.020856202
 30
0.0
 11
3354.5282905538
 21
6556.020856202
 31
0.0
  0
LINE
  5
3F5
330
1F
100
AcDbEntity
  8
0
  6
Continuous
 62
     7
370
    15
100
AcDbLine
 10
3354.4835358475
 20
3556.020856202
 30
0.0
 11
3354.5282905538
 21
3556.020856202
 31
0.0
  0
LINE
  5
3F6
330
1F
100
AcDbEntity
  8
0
  6
Continuous
 62
     7
370
    15
100
AcDbLine
 10
3383.6613598828
 20
3556.020856202
 30
0.0
 11
3383.6613598828
 21
6556.020856202
 31
0.0
  0
LINE
  5
3F7
330
1F
100
AcDbEntity
  8
0
  6
Continuous
 62
     7
370
    15
100
AcDbLine
 10
3383.6166051765
 20
6556.020856202
 30
0.0
 11
3383.6613598828
 21
6556.020856202
 31
0.0
  0
LINE
  5
3F8
330
1F
100
AcDbEntity
  8
0
  6
Continuous
 62
     7
370
    15
100
AcDbLine
 10
3383.6166051765
 20
3556.020856202
 30
0.0
 11
3383.6613598828
 21
3556.020856202
 31
0.0
  0
LINE
  5
3F9
330
1F
100
AcDbEntity
  8
0
  6
Continuous
 62
     7
370
    15
100
AcDbLine
 10
3354.1301212822
 20
3556.020856202
 30
0.0
 11
3354.1301212822
 21
6556.020856202
 31
0.0
  0
LINE
  5
3FA
330
1F
100
AcDbEntity
  8
0
  6
Continuous
 62
     7
370
    15
100
AcDbLine
 10
3354.1301212822
 20
6556.020856202
 30
0.0
 11
3354.4835358475
 21
6556.020856202
 31
0.0
  0
LINE
  5
3FB
330
1F
100
AcDbEntity
  8
0
  6
Continuous
 62
     7
370
    15
100
AcDbLine
 10
3354.1301212822
 20
3556.020856202
 30
0.0
 11
3354.4835358475
 21
3556.020856202
 31
0.0
  0
LINE
  5
3FC
330
1F
100
AcDbEntity
  8
0
  6
Continuous
 62
     7
370
    15
100
AcDbLine
 10
3384.0147744481
 20
3556.020856202
 30
0.0
 11
3384.0147744481
 21
6556.020856202
 31
0.0
  0
LINE
  5
3FD
330
1F
100
AcDbEntity
  8
0
  6
Continuous
 62
     7
370
    15
100
AcDbLine
 10
3384.0147744481
 20
6556.020856202
 30
0.0
 11
3383.6613598828
 21
6556.020856202
 31
0.0
  0
LINE
  5
3FE
330
1F
100
AcDbEntity
  8
0
  6
Continuous
 62
     7
370
    15
100
AcDbLine
 10
3384.0147744481
 20
3556.020856202
 30
0.0
 11
3383.6613598828
 21
3556.020856202
 31
0.0
  0
LINE
  5
3FF
330
1F
100
AcDbEntity
  8
0
  6
Continuous
 62
     7
370
    15
100
AcDbLine
 10
3354.0954472114
 20
3556.020856202
 30
0.0
 11
3354.0954472114
 21
6556.020856202
 31
0.0
  0
LINE
  5
400
330
1F
100
AcDbEntity
  8
0
  6
Continuous
 62
     7
370
    15
100
AcDbLine
 10
3354.0954472114
 20
6556.020856202
 30
0.0
 11
3354.1301212822
 21
6556.020856202
 31
0.0
  0
LINE
  5
401
330
1F
100
AcDbEntity
  8
0
  6
Continuous
 62
     7
370
    15
100
AcDbLine
 10
3354.0954472114
 20
3556.020856202
 30
0.0
 11
3354.1301212822
 21
3556.020856202
 31
0.0
  0
LINE
  5
402
330
1F
100
AcDbEntity
  8
0
  6
Continuous
 62
     7
370
    15
100
AcDbLine
 10
3384.0494485189
 20
3556.020856202
 30
0.0
 11
3384.0494485189
 21
6556.020856202
 31
0.0
  0
LINE
  5
403
330
1F
100
AcDbEntity
  8
0
  6
Continuous
 62
     7
370
    15
100
AcDbLine
 10
3384.0147744481
 20
6556.020856202
 30
0.0
 11
3384.0494485189
 21
6556.020856202
 31
0.0
  0
LINE
  5
404
330
1F
100
AcDbEntity
  8
0
  6
Continuous
 62
     7
370
    15
100
AcDbLine
 10
3384.0147744481
 20
3556.020856202
 30
0.0
 11
3384.0494485189
 21
3556.020856202
 31
0.0
  0
LINE
  5
405
330
1F
100
AcDbEntity
  8
0
  6
Continuous
 62
     7
370
    15
100
AcDbLine
 10
3354.0764221539
 20
3556.020856202
 30
0.0
 11
3354.0764221539
 21
6556.020856202
 31
0.0
  0
LINE
  5
406
330
1F
100
AcDbEntity
  8
0
  6
Continuous
 62
     7
370
    15
100
AcDbLine
 10
3354.0764221539
 20
6556.020856202
 30
0.0
 11
3354.0954472114
 21
6556.020856202
 31
0.0
  0
LINE
  5
407
330
1F
100
AcDbEntity
  8
0
  6
Continuous
 62
     7
370
    15
100
AcDbLine
 10
3354.0764221539
 20
3556.020856202
 30
0.0
 11
3354.0954472114
 21
3556.020856202
 31
0.0
  0
LINE
  5
408
330
1F
100
AcDbEntity
  8
0
  6
Continuous
 62
     7
370
    15
100
AcDbLine
 10
3384.0684735765
 20
3556.020856202
 30
0.0
 11
3384.0684735765
 21
6556.020856202
 31
0.0
  0
LINE
  5
409
330
1F
100
AcDbEntity
  8
0
  6
Continuous
 62
     7
370
    15
100
AcDbLine
 10
3384.0494485189
 20
6556.020856202
 30
0.0
 11
3384.0684735765
 21
6556.020856202
 31
0.0
  0
LINE
  5
40A
330
1F
100
AcDbEntity
  8
0
  6
Continuous
 62
     7
370
    15
100
AcDbLine
 10
3384.0494485189
 20
3556.020856202
 30
0.0
 11
3384.0684735765
 21
3556.020856202
 31
0.0
  0
LINE
  5
40B
330
1F
100
AcDbEntity
  8
0
  6
Continuous
 62
     7
370
    15
100
AcDbLine
 10
3354.0731047829
 20
3556.020856202
 30
0.0
 11
3354.0731047829
 21
6556.020856202
 31
0.0
  0
LINE
  5
40C
330
1F
100
AcDbEntity
  8
0
  6
Continuous
 62
     7
370
    15
100
AcDbLine
 10
3354.0764221539
 20
6556.020856202
 30
0.0
 11
3354.0724593763
 21
6556.020856202
 31
0.0
  0
LINE
  5
40D
330
1F
100
AcDbEntity
  8
0
  6
Continuous
 62
     7
370
    15
100
AcDbLine
 10
3354.0764221539
 20
3556.020856202
 30
0.0
 11
3354.0724593763
 21
3556.020856202
 31
0.0
  0
LINE
  5
40E
330
1F
100
AcDbEntity
  8
0
  6
Continuous
 62
     7
370
    15
100
AcDbLine
 10
3384.0717909475
 20
3556.020856202
 30
0.0
 11
3384.0717909475
 21
6556.020856202
 31
0.0
  0
LINE
  5
40F
330
1F
100
AcDbEntity
  8
0
  6
Continuous
 62
     7
370
    15
100
AcDbLine
 10
3384.0684735765
 20
6556.020856202
 30
0.0
 11
3384.072436354
 21
6556.020856202
 31
0.0
  0
LINE
  5
410
330
1F
100
AcDbEntity
  8
0
  6
Continuous
 62
     7
370
    15
100
AcDbLine
 10
3384.0684735765
 20
3556.020856202
 30
0.0
 11
3384.072436354
 21
3556.020856202
 31
0.0
  0
ENDSEC
  0
SECTION
  2
OBJECTS
  0
DICTIONARY
  5
C
330
0
100
AcDbDictionary
281
     1
  3
ACAD_GROUP
350
D
  3
ACAD_LAYOUT
350
1A
  3
ACAD_MLINESTYLE
350
17
  3
ACAD_PLOTSETTINGS
350
19
  3
ACAD_PLOTSTYLENAME
350
E
  3
ACAD_SCALELIST
350
47
  0
DICTIONARY
  5
D
102
{ACAD_REACTORS
330
C
102
}
330
C
100
AcDbDictionary
281
     1
  0
DICTIONARY
  5
1A
102
{ACAD_REACTORS
330
C
102
}
330
C
100
AcDbDictionary
281
     1
  3
Layout1
350
1E
  3
Layout2
350
26
  3
Model
350
22
  0
DICTIONARY
  5
17
102
{ACAD_REACTORS
330
C
102
}
330
C
100
AcDbDictionary
281
     1
  3
Standard
350
18
  0
DICTIONARY
  5
19
102
{ACAD_REACTORS
330
C
102
}
330
C
100
AcDbDictionary
281
     1
  0
ACDBDICTIONARYWDFLT
  5
E
102
{ACAD_REACTORS
330
C
102
}
330
C
100
AcDbDictionary
281
     1
  3
Normal
350
F
100
AcDbDictionaryWithDefault
340
F
  0
DICTIONARY
  5
47
102
{ACAD_REACTORS
330
C
102
}
330
C
100
AcDbDictionary
281
     1
  3
A0
350
48
  3
A1
350
49
  3
A2
350
4A
  3
A3
350
4B
  3
A4
350
4C
  3
A5
350
4D
  3
A6
350
4E
  3
A7
350
4F
  3
A8
350
50
  3
A9
350
51
  3
B0
350
52
  3
B1
350
53
  3
B2
350
54
  3
B3
350
55
  3
B4
350
56
  3
B5
350
57
  3
B6
350
58
  3
B7
350
59
  3
B8
350
5A
  3
B9
350
5B
  3
C0
350
5C
  3
C1
350
5D
  3
C2
350
5E
  3
C3
350
5F
  3
C4
350
60
  3
C5
350
61
  3
C6
350
62
  3
C7
350
63
  3
C8
350
64
  3
C9
350
65
  3
D0
350
66
  3
D1
350
67
  3
D2
350
68
  0
LAYOUT
  5
1E
102
{ACAD_REACTORS
330
1A
102
}
330
1A
100
AcDbPlotSettings
  1

  2
none_device
  4

  6

 40
0.0
 41
0.0
 42
0.0
 43
0.0
 44
0.0
 45
0.0
 46
0.0
 47
0.0
 48
0.0
 49
0.0
140
0.0
141
0.0
142
1.0
143
1.0
 70
   688
 72
     1
 73
     0
 74
     5
  7

 75
    16
147
1.0
148
0.0
149
0.0
100
AcDbLayout
  1
Layout1
 70
     1
 71
     1
 10
0.0
 20
0.0
 11
420.0
 21
297.0
 12
0.0
 22
0.0
 32
0.0
 14
1.0000000000E+20
 24
1.0000000000E+20
 34
1.0000000000E+20
 15
-1.0000000000E+20
 25
-1.0000000000E+20
 35
-1.0000000000E+20
146
0.0
 13
0.0
 23
0.0
 33
0.0
 16
1.0
 26
0.0
 36
0.0
 17
0.0
 27
1.0
 37
0.0
 76
     0
330
1B
  0
LAYOUT
  5
26
102
{ACAD_REACTORS
330
1A
102
}
330
1A
100
AcDbPlotSettings
  1

  2
none_device
  4

  6

 40
0.0
 41
0.0
 42
0.0
 43
0.0
 44
0.0
 45
0.0
 46
0.0
 47
0.0
 48
0.0
 49
0.0
140
0.0
141
0.0
142
1.0
143
1.0
 70
   688
 72
     1
 73
     0
 74
     5
  7

 75
    16
147
1.0
148
0.0
149
0.0
100
AcDbLayout
  1
Layout2
 70
     1
 71
     2
 10
0.0
 20
0.0
 11
0.0
 21
0.0
 12
0.0
 22
0.0
 32
0.0
 14
0.0
 24
0.0
 34
0.0
 15
0.0
 25
0.0
 35
0.0
146
0.0
 13
0.0
 23
0.0
 33
0.0
 16
1.0
 26
0.0
 36
0.0
 17
0.0
 27
1.0
 37
0.0
 76
     0
330
23
  0
LAYOUT
  5
22
102
{ACAD_REACTORS
330
1A
102
}
330
1A
100
AcDbPlotSettings
  1

  2
none_device
  4
Letter_(8.50_x_11.00_Inches)
  6

 40
6.35
 41
6.35
 42
6.35000508
 43
6.35000508
 44
215.9
 45
279.4
 46
0.0
 47
0.0
 48
0.0
 49
0.0
140
0.0
141
0.0
142
1.0
143
1.0
 70
  1712
 72
     1
 73
     0
 74
     0
  7

 75
     0
147
1.0
148
0.0
149
0.0
100
AcDbLayout
  1
Model
 70
     1
 71
     0
 10
0.0
 20
0.0
 11
14850.0
 21
10500.0
 12
0.0
 22
0.0
 32
0.0
 14
0.0
 24
0.0
 34
0.0
 15
14850.0
 25
10500.0
 35
0.0
146
0.0
 13
0.0
 23
0.0
 33
0.0
 16
1.0
 26
0.0
 36
0.0
 17
0.0
 27
1.0
 37
0.0
 76
     0
330
1F
331
29
  0
MLINESTYLE
  5
18
102
{ACAD_REACTORS
330
17
102
}
330
17
100
AcDbMlineStyle
  2
Standard
 70
     0
  3

 62
   256
 51
90.0
 52
90.0
 71
     2
 49
0.5
 62
   256
  6
BYLAYER
 49
-0.5
 62
   256
  6
BYLAYER
  0
ACDBPLACEHOLDER
  5
F
102
{ACAD_REACTORS
330
E
102
}
330
E
  0
SCALE
  5
48
102
{ACAD_REACTORS
330
47
102
}
330
47
100
AcDbScale
 70
     0
300
1:1
140
1.0
141
1.0
290
     1
  0
SCALE
  5
49
102
{ACAD_REACTORS
330
47
102
}
330
47
100
AcDbScale
 70
     0
300
1:2
140
1.0
141
2.0
290
     0
  0
SCALE
  5
4A
102
{ACAD_REACTORS
330
47
102
}
330
47
100
AcDbScale
 70
     0
300
1:4
140
1.0
141
4.0
290
     0
  0
SCALE
  5
4B
102
{ACAD_REACTORS
330
47
102
}
330
47
100
AcDbScale
 70
     0
300
1:5
140
1.0
141
5.0
290
     0
  0
SCALE
  5
4C
102
{ACAD_REACTORS
330
47
102
}
330
47
100
AcDbScale
 70
     0
300
1:8
140
1.0
141
8.0
290
     0
  0
SCALE
  5
4D
102
{ACAD_REACTORS
330
47
102
}
330
47
100
AcDbScale
 70
     0
300
1:10
140
1.0
141
10.0
290
     0
  0
SCALE
  5
4E
102
{ACAD_REACTORS
330
47
102
}
330
47
100
AcDbScale
 70
     0
300
1:16
140
1.0
141
16.0
290
     0
  0
SCALE
  5
4F
102
{ACAD_REACTORS
330
47
102
}
330
47
100
AcDbScale
 70
     0
300
1:20
140
1.0
141
20.0
290
     0
  0
SCALE
  5
50
102
{ACAD_REACTORS
330
47
102
}
330
47
100
AcDbScale
 70
     0
300
1:30
140
1.0
141
30.0
290
     0
  0
SCALE
  5
51
102
{ACAD_REACTORS
330
47
102
}
330
47
100
AcDbScale
 70
     0
300
1:40
140
1.0
141
40.0
290
     0
  0
SCALE
  5
52
102
{ACAD_REACTORS
330
47
102
}
330
47
100
AcDbScale
 70
     0
300
1:50
140
1.0
141
50.0
290
     0
  0
SCALE
  5
53
102
{ACAD_REACTORS
330
47
102
}
330
47
100
AcDbScale
 70
     0
300
1:100
140
1.0
141
100.0
290
     0
  0
SCALE
  5
54
102
{ACAD_REACTORS
330
47
102
}
330
47
100
AcDbScale
 70
     0
300
2:1
140
2.0
141
1.0
290
     0
  0
SCALE
  5
55
102
{ACAD_REACTORS
330
47
102
}
330
47
100
AcDbScale
 70
     0
300
4:1
140
4.0
141
1.0
290
     0
  0
SCALE
  5
56
102
{ACAD_REACTORS
330
47
102
}
330
47
100
AcDbScale
 70
     0
300
8:1
140
8.0
141
1.0
290
     0
  0
SCALE
  5
57
102
{ACAD_REACTORS
330
47
102
}
330
47
100
AcDbScale
 70
     0
300
10:1
140
10.0
141
1.0
290
     0
  0
SCALE
  5
58
102
{ACAD_REACTORS
330
47
102
}
330
47
100
AcDbScale
 70
     0
300
100:1
140
100.0
141
1.0
290
     0
  0
SCALE
  5
59
102
{ACAD_REACTORS
330
47
102
}
330
47
100
AcDbScale
 70
     0
300
1/128" = 1'-0"
140
0.0078125
141
12.0
290
     0
  0
SCALE
  5
5A
102
{ACAD_REACTORS
330
47
102
}
330
47
100
AcDbScale
 70
     0
300
1/64" = 1'-0"
140
0.015625
141
12.0
290
     0
  0
SCALE
  5
5B
102
{ACAD_REACTORS
330
47
102
}
330
47
100
AcDbScale
 70
     0
300
1/32" = 1'-0"
140
0.03125
141
12.0
290
     0
  0
SCALE
  5
5C
102
{ACAD_REACTORS
330
47
102
}
330
47
100
AcDbScale
 70
     0
300
1/16" = 1'-0"
140
0.0625
141
12.0
290
     0
  0
SCALE
  5
5D
102
{ACAD_REACTORS
330
47
102
}
330
47
100
AcDbScale
 70
     0
300
3/32" = 1'-0"
140
0.09375
141
12.0
290
     0
  0
SCALE
  5
5E
102
{ACAD_REACTORS
330
47
102
}
330
47
100
AcDbScale
 70
     0
300
1/8" = 1'-0"
140
0.125
141
12.0
290
     0
  0
SCALE
  5
5F
102
{ACAD_REACTORS
330
47
102
}
330
47
100
AcDbScale
 70
     0
300
3/16" = 1'-0"
140
0.1875
141
12.0
290
     0
  0
SCALE
  5
60
102
{ACAD_REACTORS
330
47
102
}
330
47
100
AcDbScale
 70
     0
300
1/4" = 1'-0"
140
0.25
141
12.0
290
     0
  0
SCALE
  5
61
102
{ACAD_REACTORS
330
47
102
}
330
47
100
AcDbScale
 70
     0
300
3/8" = 1'-0"
140
0.375
141
12.0
290
     0
  0
SCALE
  5
62
102
{ACAD_REACTORS
330
47
102
}
330
47
100
AcDbScale
 70
     0
300
1/2" = 1'-0"
140
0.5
141
12.0
290
     0
  0
SCALE
  5
63
102
{ACAD_REACTORS
330
47
102
}
330
47
100
AcDbScale
 70
     0
300
3/4" = 1'-0"
140
0.75
141
12.0
290
     0
  0
SCALE
  5
64
102
{ACAD_REACTORS
330
47
102
}
330
47
100
AcDbScale
 70
     0
300
1" = 1'-0"
140
1.0
141
12.0
290
     0
  0
SCALE
  5
65
102
{ACAD_REACTORS
330
47
102
}
330
47
100
AcDbScale
 70
     0
300
1-1/2" = 1'-0"
140
1.5
141
12.0
290
     0
  0
SCALE
  5
66
102
{ACAD_REACTORS
330
47
102
}
330
47
100
AcDbScale
 70
     0
300
3" = 1'-0"
140
3.0
141
12.0
290
     0
  0
SCALE
  5
67
102
{ACAD_REACTORS
330
47
102
}
330
47
100
AcDbScale
 70
     0
300
6" = 1'-0"
140
6.0
141
12.0
290
     0
  0
SCALE
  5
68
102
{ACAD_REACTORS
330
47
102
}
330
47
100
AcDbScale
 70
     0
300
1'-0" = 1'-0"
140
12.0
141
12.0
290
     0
  0
ENDSEC
  0
EOF
