  0
SECTION
  2
HEADER
  9
$ACADVER
  1
AC1015
  9
$ACADMAINTVER
 70
     6
  9
$DWGCODEPAGE
  3
ANSI_1252
  9
$INSBASE
 10
0.0
 20
0.0
 30
0.0
  9
$EXTMIN
 10
0.0
 20
0.0
 30
0.0
  9
$EXTMAX
 10
14850.0
 20
10500.0
 30
0.0
  9
$LIMMIN
 10
0.0
 20
0.0
  9
$LIMMAX
 10
14850.0
 20
10500.0
  9
$ORTHOMODE
 70
     0
  9
$REGENMODE
 70
     1
  9
$FILLMODE
 70
     1
  9
$QTEXTMODE
 70
     0
  9
$MIRRTEXT
 70
     1
  9
$LTSCALE
 40
50.0
  9
$ATTMODE
 70
     1
  9
$TEXTSIZE
 40
175.0
  9
$TRACEWID
 40
1.0
  9
$TEXTSTYLE
  7
Standard
  9
$CLAYER
  8
0
  9
$CELTYPE
  6
ByLayer
  9
$CECOLOR
 62
   256
  9
$CELTSCALE
 40
1.0
  9
$DISPSILH
 70
     0
  9
$DIMSCALE
 40
1.0
  9
$DIMASZ
 40
165.1
  9
$DIMEXO
 40
50.0
  9
$DIMDLI
 40
3.75
  9
$DIMRND
 40
0.0
  9
$DIMDLE
 40
0.0
  9
$DIMEXE
 40
50.0
  9
$DIMTP
 40
0.0
  9
$DIMTM
 40
0.0
  9
$DIMTXT
 40
175.0
  9
$DIMCEN
 40
2.5
  9
$DIMTSZ
 40
0.0
  9
$DIMTOL
 70
     0
  9
$DIMLIM
 70
     0
  9
$DIMTIH
 70
     1
  9
$DIMTOH
 70
     1
  9
$DIMSE1
 70
     0
  9
$DIMSE2
 70
     0
  9
$DIMTAD
 70
     1
  9
$DIMZIN
 70
     0
  9
$DIMBLK
  1

  9
$DIMASO
 70
     1
  9
$DIMSHO
 70
     1
  9
$DIMPOST
  1

  9
$DIMAPOST
  1

  9
$DIMALT
 70
     0
  9
$DIMALTD
 70
     3
  9
$DIMALTF
 40
0.0393700787
  9
$DIMLFAC
 40
1.0
  9
$DIMTOFL
 70
     1
  9
$DIMTVP
 40
0.0
  9
$DIMTIX
 70
     0
  9
$DIMSOXD
 70
     0
  9
$DIMSAH
 70
     0
  9
$DIMBLK1
  1

  9
$DIMBLK2
  1

  9
$DIMSTYLE
  2
ISO-25
  9
$DIMCLRD
 70
     0
  9
$DIMCLRE
 70
     0
  9
$DIMCLRT
 70
     0
  9
$DIMTFAC
 40
1.0
  9
$DIMGAP
 40
76.2
  9
$DIMJUST
 70
     0
  9
$DIMSD1
 70
     0
  9
$DIMSD2
 70
     0
  9
$DIMTOLJ
 70
     0
  9
$DIMTZIN
 70
     0
  9
$DIMALTZ
 70
     0
  9
$DIMALTTZ
 70
     0
  9
$DIMUPT
 70
     0
  9
$DIMDEC
 70
     2
  9
$DIMTDEC
 70
     2
  9
$DIMALTU
 70
     2
  9
$DIMALTTD
 70
     3
  9
$DIMTXSTY
  7
Standard
  9
$DIMAUNIT
 70
     0
  9
$DIMADEC
 70
     2
  9
$DIMALTRND
 40
0.0
  9
$DIMAZIN
 70
     0
  9
$DIMDSEP
 70
    44
  9
$DIMATFIT
 70
     3
  9
$DIMFRAC
 70
     0
  9
$DIMLDRBLK
  1

  9
$DIMLUNIT
 70
     2
  9
$DIMLWD
 70
    -2
  9
$DIMLWE
 70
    -2
  9
$DIMTMOVE
 70
     0
  9
$LUNITS
 70
     2
  9
$LUPREC
 70
     2
  9
$SKETCHINC
 40
1.0
  9
$FILLETRAD
 40
10.0
  9
$AUNITS
 70
     0
  9
$AUPREC
 70
     2
  9
$MENU
  1
.
  9
$ELEVATION
 40
0.0
  9
$PELEVATION
 40
0.0
  9
$THICKNESS
 40
0.0
  9
$LIMCHECK
 70
     0
  9
$CHAMFERA
 40
0.0
  9
$CHAMFERB
 40
0.0
  9
$CHAMFERC
 40
0.0
  9
$CHAMFERD
 40
0.0
  9
$SKPOLY
 70
     0
  9
$TDCREATE
 40
2456902.495481065
  9
$TDUCREATE
 40
2456902.412147732
  9
$TDUPDATE
 40
2456902.495482141
  9
$TDUUPDATE
 40
2456902.412148808
  9
$TDINDWG
 40
0.0000000116
  9
$TDUSRTIMER
 40
0.0000000116
  9
$USRTIMER
 70
     1
  9
$ANGBASE
 50
0.0
  9
$ANGDIR
 70
     0
  9
$PDMODE
 70
     0
  9
$PDSIZE
 40
-1.0
  9
$PLINEWID
 40
0.0
  9
$SPLFRAME
 70
     0
  9
$SPLINETYPE
 70
     6
  9
$SPLINESEGS
 70
     8
  9
$HANDSEED
  5
3ED
  9
$SURFTAB1
 70
     6
  9
$SURFTAB2
 70
     6
  9
$SURFTYPE
 70
     6
  9
$SURFU
 70
     6
  9
$SURFV
 70
     6
  9
$UCSBASE
  2

  9
$UCSNAME
  2

  9
$UCSORG
 10
0.0
 20
0.0
 30
0.0
  9
$UCSXDIR
 10
1.0
 20
0.0
 30
0.0
  9
$UCSYDIR
 10
0.0
 20
1.0
 30
0.0
  9
$UCSORTHOREF
  2

  9
$UCSORTHOVIEW
 70
     0
  9
$UCSORGTOP
 10
0.0
 20
0.0
 30
0.0
  9
$UCSORGBOTTOM
 10
0.0
 20
0.0
 30
0.0
  9
$UCSORGLEFT
 10
0.0
 20
0.0
 30
0.0
  9
$UCSORGRIGHT
 10
0.0
 20
0.0
 30
0.0
  9
$UCSORGFRONT
 10
0.0
 20
0.0
 30
0.0
  9
$UCSORGBACK
 10
0.0
 20
0.0
 30
0.0
  9
$PUCSBASE
  2

  9
$PUCSNAME
  2

  9
$PUCSORG
 10
0.0
 20
0.0
 30
0.0
  9
$PUCSXDIR
 10
1.0
 20
0.0
 30
0.0
  9
$PUCSYDIR
 10
0.0
 20
1.0
 30
0.0
  9
$PUCSORTHOREF
  2

  9
$PUCSORTHOVIEW
 70
     0
  9
$PUCSORGTOP
 10
0.0
 20
0.0
 30
0.0
  9
$PUCSORGBOTTOM
 10
0.0
 20
0.0
 30
0.0
  9
$PUCSORGLEFT
 10
0.0
 20
0.0
 30
0.0
  9
$PUCSORGRIGHT
 10
0.0
 20
0.0
 30
0.0
  9
$PUCSORGFRONT
 10
0.0
 20
0.0
 30
0.0
  9
$PUCSORGBACK
 10
0.0
 20
0.0
 30
0.0
  9
$USERI1
 70
     0
  9
$USERI2
 70
     0
  9
$USERI3
 70
     0
  9
$USERI4
 70
     0
  9
$USERI5
 70
     0
  9
$USERR1
 40
0.0
  9
$USERR2
 40
0.0
  9
$USERR3
 40
0.0
  9
$USERR4
 40
0.0
  9
$USERR5
 40
0.0
  9
$WORLDVIEW
 70
     1
  9
$SHADEDGE
 70
     3
  9
$SHADEDIF
 70
    70
  9
$TILEMODE
 70
     1
  9
$MAXACTVP
 70
    64
  9
$PINSBASE
 10
0.0
 20
0.0
 30
0.0
  9
$PLIMCHECK
 70
     0
  9
$PEXTMIN
 10
1.0000000000E+20
 20
1.0000000000E+20
 30
1.0000000000E+20
  9
$PEXTMAX
 10
-1.0000000000E+20
 20
-1.0000000000E+20
 30
-1.0000000000E+20
  9
$PLIMMIN
 10
0.0
 20
0.0
  9
$PLIMMAX
 10
420.0
 20
297.0
  9
$UNITMODE
 70
     0
  9
$VISRETAIN
 70
     1
  9
$PLINEGEN
 70
     0
  9
$PSLTSCALE
 70
     1
  9
$TREEDEPTH
 70
  3020
  9
$CMLSTYLE
  2
Standard
  9
$CMLJUST
 70
     0
  9
$CMLSCALE
 40
20.0
  9
$PROXYGRAPHICS
 70
     1
  9
$MEASUREMENT
 70
     1
  9
$CELWEIGHT
370
    -1
  9
$ENDCAPS
280
     0
  9
$JOINSTYLE
280
     0
  9
$LWDISPLAY
290
     1
  9
$INSUNITS
 70
     4
  9
$HYPERLINKBASE
  1

  9
$STYLESHEET
  1

  9
$XEDIT
290
     1
  9
$CEPSNTYPE
380
     0
  9
$PSTYLEMODE
290
     1
  9
$FINGERPRINTGUID
  2
{AC8F375F-38FF-467A-9D1F-A731DAD274EF}
  9
$VERSIONGUID
  2
{FAEB1C32-E019-11D5-929B-00C0DF256EC4}
  9
$EXTNAMES
290
     1
  9
$PSVPSCALE
 40
0.0
  9
$OLESTARTUP
290
     0
  0
ENDSEC
  0
SECTION
  2
CLASSES
  0
CLASS
  1
ACDBDICTIONARYWDFLT
  2
AcDbDictionaryWithDefault
  3
ObjectDBX Classes
 90
        0
280
     0
281
     0
  0
CLASS
  1
VISUALSTYLE
  2
AcDbVisualStyle
  3
ObjectDBX Classes
 90
     4095
280
     0
281
     0
  0
CLASS
  1
MATERIAL
  2
AcDbMaterial
  3
ObjectDBX Classes
 90
     1153
280
     0
281
     0
  0
CLASS
  1
SCALE
  2
AcDbScale
  3
ObjectDBX Classes
 90
     1153
280
     0
281
     0
  0
CLASS
  1
SUN
  2
AcDbSun
  3
SCENEOE
 90
     1153
280
     0
281
     0
  0
CLASS
  1
ACDBPLACEHOLDER
  2
AcDbPlaceHolder
  3
ObjectDBX Classes
 90
        0
280
     0
281
     0
  0
CLASS
  1
LAYOUT
  2
AcDbLayout
  3
ObjectDBX Classes
 90
        0
280
     0
281
     0
  0
ENDSEC
  0
SECTION
  2
TABLES
  0
TABLE
  2
VPORT
  5
8
330
0
100
AcDbSymbolTable
 70
     1
  0
VPORT
  5
29
330
8
100
AcDbSymbolTableRecord
100
AcDbViewportTableRecord
  2
*Active
 70
     0
 10
0.0
 20
0.0
 11
1.0
 21
1.0
 12
7425.0
 22
5250.0
 13
0.0
 23
0.0
 14
10.0
 24
10.0
 15
10.0
 25
10.0
 16
0.0
 26
0.0
 36
1.0
 17
0.0
 27
0.0
 37
0.0
 40
10500.0
 41
1.4142857143
 42
50.0
 43
0.0
 44
0.0
 50
0.0
 51
0.0
 71
     0
 72
  2000
 73
     1
 74
     3
 75
     0
 76
     0
 77
     0
 78
     0
281
     0
 65
     1
110
0.0
120
0.0
130
0.0
111
1.0
121
0.0
131
0.0
112
0.0
122
1.0
132
0.0
 79
     0
146
0.0
  0
ENDTAB
  0
TABLE
  2
LTYPE
  5
5
330
0
100
AcDbSymbolTable
 70
     6
  0
LTYPE
  5
14
330
5
100
AcDbSymbolTableRecord
100
AcDbLinetypeTableRecord
  2
ByBlock
 70
     0
  3

 72
    65
 73
     0
 40
0.0
  0
LTYPE
  5
15
330
5
100
AcDbSymbolTableRecord
100
AcDbLinetypeTableRecord
  2
ByLayer
 70
     0
  3

 72
    65
 73
     0
 40
0.0
  0
LTYPE
  5
16
330
5
100
AcDbSymbolTableRecord
100
AcDbLinetypeTableRecord
  2
Continuous
 70
     0
  3
Solid line
 72
    65
 73
     0
 40
0.0
  0
LTYPE
  5
6A
330
5
100
AcDbSymbolTableRecord
100
AcDbLinetypeTableRecord
  2
HIDDEN
 70
     0
  3
Hidden __ __ __ __ __ __ __ __ __ __ __ __ __ __
 72
    65
 73
     2
 40
1.905
 49
1.27
 74
     0
 49
-0.635
 74
     0
  0
LTYPE
  5
6B
330
5
100
AcDbSymbolTableRecord
100
AcDbLinetypeTableRecord
  2
PHANTOM
 70
     0
  3
Phantom ______  __  __  ______  __  __  ______
 72
    65
 73
     6
 40
12.7
 49
6.35
 74
     0
 49
-1.27
 74
     0
 49
1.27
 74
     0
 49
-1.27
 74
     0
 49
1.27
 74
     0
 49
-1.27
 74
     0
  0
LTYPE
  5
6C
330
5
100
AcDbSymbolTableRecord
100
AcDbLinetypeTableRecord
  2
CENTER
 70
     0
  3
Center ____ _ ____ _ ____ _ ____ _ ____ _ ____
 72
    65
 73
     4
 40
10.16
 49
6.35
 74
     0
 49
-1.27
 74
     0
 49
1.27
 74
     0
 49
-1.27
 74
     0
  0
LTYPE
  5
6D
330
5
100
AcDbSymbolTableRecord
100
AcDbLinetypeTableRecord
  2
CENTERX2
 70
     0
  3
Center (2x) ________  __  ________  __  _____
 72
    65
 73
     4
 40
20.32
 49
12.7
 74
     0
 49
-2.54
 74
     0
 49
2.54
 74
     0
 49
-2.54
 74
     0
  0
LTYPE
  5
6E
330
5
100
AcDbSymbolTableRecord
100
AcDbLinetypeTableRecord
  2
DOT2
 70
     0
  3
Dot (.5x) ........................................
 72
    65
 73
     2
 40
0.635
 49
0.0
 74
     0
 49
-0.635
 74
     0
  0
ENDTAB
  0
TABLE
  2
LAYER
  5
2
330
0
100
AcDbSymbolTable
 70
     2
  0
LAYER
  5
10
330
2
100
AcDbSymbolTableRecord
100
AcDbLayerTableRecord
  2
0
 70
     0
 62
     7
  6
Continuous
370
    -3
390
F
  0
LAYER
  5
6F
330
2
100
AcDbSymbolTableRecord
100
AcDbLayerTableRecord
  2
FORMAT
 70
     0
 62
     7
  6
Continuous
370
    -3
390
F
  0
ENDTAB
  0
TABLE
  2
STYLE
  5
3
330
0
100
AcDbSymbolTable
 70
     3
  0
STYLE
  5
11
330
3
100
AcDbSymbolTableRecord
100
AcDbTextStyleTableRecord
  2
Standard
 70
     0
 40
0.0
 41
1.0
 50
0.0
 71
     0
 42
175.0
  3
txt
  4

  0
STYLE
  5
8C
330
3
100
AcDbSymbolTableRecord
100
AcDbTextStyleTableRecord
  2
SLDTEXTSTYLE0
 70
     0
 40
0.0
 41
0.75
 50
0.0
 71
     0
 42
175.0
  3
TXT
  4

  0
STYLE
  5
94
330
3
100
AcDbSymbolTableRecord
100
AcDbTextStyleTableRecord
  2
SLDTEXTSTYLE1
 70
     0
 40
0.0
 41
0.6923076923
 50
0.0
 71
     0
 42
175.0
  3
TXT
  4

  0
ENDTAB
  0
TABLE
  2
VIEW
  5
6
330
0
100
AcDbSymbolTable
 70
     0
  0
ENDTAB
  0
TABLE
  2
UCS
  5
7
330
0
100
AcDbSymbolTable
 70
     0
  0
ENDTAB
  0
TABLE
  2
APPID
  5
9
330
0
100
AcDbSymbolTable
 70
     1
  0
APPID
  5
12
330
9
100
AcDbSymbolTableRecord
100
AcDbRegAppTableRecord
  2
ACAD
 70
     0
  0
ENDTAB
  0
TABLE
  2
DIMSTYLE
  5
A
330
0
100
AcDbSymbolTable
 70
     1
100
AcDbDimStyleTable
  0
DIMSTYLE
105
27
330
A
100
AcDbSymbolTableRecord
100
AcDbDimStyleTableRecord
  2
ISO-25
 70
     0
 41
2.5
 42
0.625
 43
3.75
 44
1.25
 73
     0
 74
     0
 77
     1
 78
     8
140
2.5
141
2.5
143
0.0393700787
147
0.625
171
     3
172
     1
178
     0
271
     2
272
     2
274
     3
278
    44
283
     0
284
     8
340
11
  0
ENDTAB
  0
TABLE
  2
BLOCK_RECORD
  5
1
330
0
100
AcDbSymbolTable
 70
     1
  0
BLOCK_RECORD
  5
1F
330
1
100
AcDbSymbolTableRecord
100
AcDbBlockTableRecord
  2
*Model_Space
340
22
  0
BLOCK_RECORD
  5
1B
330
1
100
AcDbSymbolTableRecord
100
AcDbBlockTableRecord
  2
*Paper_Space
340
1E
  0
BLOCK_RECORD
  5
23
330
1
100
AcDbSymbolTableRecord
100
AcDbBlockTableRecord
  2
*Paper_Space0
340
26
  0
ENDTAB
  0
ENDSEC
  0
SECTION
  2
BLOCKS
  0
BLOCK
  5
20
330
1F
100
AcDbEntity
  8
0
100
AcDbBlockBegin
  2
*Model_Space
 70
     0
 10
0.0
 20
0.0
 30
0.0
  3
*Model_Space
  1
*Model_Space
  0
ENDBLK
  5
21
330
1F
100
AcDbEntity
  8
0
100
AcDbBlockEnd
  0
BLOCK
  5
1C
330
1B
100
AcDbEntity
 67
     1
  8
0
100
AcDbBlockBegin
  2
*Paper_Space
 70
     0
 10
0.0
 20
0.0
 30
0.0
  3
*Paper_Space
  1
*Paper_Space
  0
ENDBLK
  5
1D
330
1B
100
AcDbEntity
 67
     1
  8
0
100
AcDbBlockEnd
  0
BLOCK
  5
24
330
23
100
AcDbEntity
  8
0
100
AcDbBlockBegin
  2
*Paper_Space0
 70
     0
 10
0.0
 20
0.0
 30
0.0
  3
*Paper_Space0
  1
*Paper_Space0
  0
ENDBLK
  5
25
330
23
100
AcDbEntity
  8
0
100
AcDbBlockEnd
  0
ENDSEC
  0
SECTION
  2
ENTITIES
  0
LINE
  5
70
330
1F
100
AcDbEntity
  8
0
  6
Continuous
 62
     7
370
     0
100
AcDbLine
 10
14600.0
 20
10250.0
 30
0.0
 11
14600.0
 21
250.0
 31
0.0
  0
LINE
  5
71
330
1F
100
AcDbEntity
  8
0
  6
Continuous
 62
     7
370
     0
100
AcDbLine
 10
7970.0
 20
1737.5
 30
0.0
 11
8706.5
 21
1737.5
 31
0.0
  0
LINE
  5
72
330
1F
100
AcDbEntity
  8
0
  6
Continuous
 62
     7
370
     0
100
AcDbLine
 10
10180.0
 20
1737.5
 30
0.0
 11
14600.0
 21
1737.5
 31
0.0
  0
LINE
  5
73
330
1F
100
AcDbEntity
  8
0
  6
Continuous
 62
     7
370
     0
100
AcDbLine
 10
7970.0
 20
462.5
 30
0.0
 11
14600.0
 21
462.5
 31
0.0
  0
LINE
  5
74
330
1F
100
AcDbEntity
  8
0
  6
Continuous
 62
     7
370
     0
100
AcDbLine
 10
7970.0
 20
1737.5
 30
0.0
 11
7970.0
 21
1418.75
 31
0.0
  0
LINE
  5
75
330
1F
100
AcDbEntity
  8
0
  6
Continuous
 62
     7
370
     0
100
AcDbLine
 10
14600.0
 20
1100.0
 30
0.0
 11
13950.0
 21
1100.0
 31
0.0
  0
LINE
  5
76
330
1F
100
AcDbEntity
  8
0
  6
Continuous
 62
     7
370
     0
100
AcDbLine
 10
9443.0
 20
1100.0
 30
0.0
 11
10180.0
 21
1100.0
 31
0.0
  0
LINE
  5
77
330
1F
100
AcDbEntity
  8
0
  6
Continuous
 62
     7
370
     0
100
AcDbLine
 10
10180.0
 20
1737.5
 30
0.0
 11
10180.0
 21
250.0
 31
0.0
  0
LINE
  5
78
330
1F
100
AcDbEntity
  8
0
  6
Continuous
 62
     7
370
     0
100
AcDbLine
 10
12390.0
 20
250.0
 30
0.0
 11
12390.0
 21
462.5
 31
0.0
  0
LINE
  5
79
330
1F
100
AcDbEntity
  8
0
  6
Continuous
 62
     7
370
     0
100
AcDbLine
 10
8706.5
 20
1737.5
 30
0.0
 11
9443.0
 21
1737.5
 31
0.0
  0
LINE
  5
7A
330
1F
100
AcDbEntity
  8
0
  6
Continuous
 62
     7
370
     0
100
AcDbLine
 10
13950.0
 20
462.5
 30
0.0
 11
13950.0
 21
774.7484680088
 31
0.0
  0
LINE
  5
7B
330
1F
100
AcDbEntity
  8
0
  6
Continuous
 62
     7
370
     0
100
AcDbLine
 10
9443.0
 20
1737.5
 30
0.0
 11
10180.0
 21
1737.5
 31
0.0
  0
LINE
  5
7C
330
1F
100
AcDbEntity
  8
0
  6
Continuous
 62
     7
370
     0
100
AcDbLine
 10
14600.0
 20
774.7484680088
 30
0.0
 11
13950.0
 21
774.7484680088
 31
0.0
  0
LINE
  5
7D
330
1F
100
AcDbEntity
  8
0
  6
Continuous
 62
     7
370
     0
100
AcDbLine
 10
10180.0
 20
1100.0
 30
0.0
 11
13950.0
 21
1100.0
 31
0.0
  0
LINE
  5
7E
330
1F
100
AcDbEntity
  8
0
  6
Continuous
 62
     7
370
     0
100
AcDbLine
 10
9443.0
 20
1737.5
 30
0.0
 11
9443.0
 21
1100.0
 31
0.0
  0
LINE
  5
7F
330
1F
100
AcDbEntity
  8
0
  6
Continuous
 62
     7
370
     0
100
AcDbLine
 10
9443.0
 20
1100.0
 30
0.0
 11
8706.5
 21
1100.0
 31
0.0
  0
LINE
  5
80
330
1F
100
AcDbEntity
  8
0
  6
Continuous
 62
     7
370
     0
100
AcDbLine
 10
14600.0
 20
10250.0
 30
0.0
 11
250.0
 21
10250.0
 31
0.0
  0
LINE
  5
81
330
1F
100
AcDbEntity
  8
0
  6
Continuous
 62
     7
370
     0
100
AcDbLine
 10
250.0
 20
10250.0
 30
0.0
 11
250.0
 21
250.0
 31
0.0
  0
LINE
  5
82
330
1F
100
AcDbEntity
  8
0
  6
Continuous
 62
     7
370
     0
100
AcDbLine
 10
250.0
 20
250.0
 30
0.0
 11
14600.0
 21
250.0
 31
0.0
  0
LINE
  5
83
330
1F
100
AcDbEntity
  8
0
  6
Continuous
 62
     7
370
     0
100
AcDbLine
 10
8706.5
 20
1100.0
 30
0.0
 11
8706.5
 21
1737.5
 31
0.0
  0
LINE
  5
84
330
1F
100
AcDbEntity
  8
0
  6
Continuous
 62
     7
370
     0
100
AcDbLine
 10
8706.5
 20
1100.0
 30
0.0
 11
7970.0
 21
1100.0
 31
0.0
  0
LINE
  5
85
330
1F
100
AcDbEntity
  8
0
  6
Continuous
 62
     7
370
     0
100
AcDbLine
 10
13950.0
 20
774.7484680088
 30
0.0
 11
13950.0
 21
1100.0
 31
0.0
  0
LINE
  5
86
330
1F
100
AcDbEntity
  8
0
  6
Continuous
 62
     7
370
     0
100
AcDbLine
 10
7970.0
 20
1418.75
 30
0.0
 11
8706.5
 21
1418.75
 31
0.0
  0
LINE
  5
87
330
1F
100
AcDbEntity
  8
0
  6
Continuous
 62
     7
370
     0
100
AcDbLine
 10
8706.5
 20
1418.75
 30
0.0
 11
9443.0
 21
1418.75
 31
0.0
  0
LINE
  5
88
330
1F
100
AcDbEntity
  8
0
  6
Continuous
 62
     7
370
     0
100
AcDbLine
 10
9443.0
 20
1418.75
 30
0.0
 11
10180.0
 21
1418.75
 31
0.0
  0
LINE
  5
89
330
1F
100
AcDbEntity
  8
0
  6
Continuous
 62
     7
370
     0
100
AcDbLine
 10
7970.0
 20
1100.0
 30
0.0
 11
7970.0
 21
1418.75
 31
0.0
  0
LINE
  5
8A
330
1F
100
AcDbEntity
  8
0
  6
Continuous
 62
     7
370
     0
100
AcDbLine
 10
7970.0
 20
1100.0
 30
0.0
 11
7970.0
 21
462.5
 31
0.0
  0
LINE
  5
8B
330
1F
100
AcDbEntity
  8
0
  6
Continuous
 62
     7
370
     0
100
AcDbLine
 10
7970.0
 20
250.0
 30
0.0
 11
7970.0
 21
462.5
 31
0.0
  0
MTEXT
  5
8D
330
1F
100
AcDbEntity
  8
0
  6
Continuous
 62
     7
370
     0
100
AcDbMText
 10
14013.846863997
 20
971.6222473842
 30
0.0
 40
75.0
 41
0.0
 71
     1
 72
     1
  1
Blattformat
  7
SLDTEXTSTYLE0
 73
     1
 44
1.0
  0
MTEXT
  5
8E
330
1F
100
AcDbEntity
  8
0
  6
Continuous
 62
     7
370
     0
100
AcDbMText
 10
8118.2120446351
 20
1293.7465234676
 30
0.0
 40
75.0
 41
0.0
 71
     1
 72
     1
  1
Ch. Höfig
  7
SLDTEXTSTYLE0
 73
     1
 44
1.0
  0
MTEXT
  5
8F
330
1F
100
AcDbEntity
  8
0
  6
Continuous
 62
     7
370
     0
100
AcDbMText
 10
8338.8098912947
 20
1610.1782907916
 30
0.0
 40
75.0
 41
0.0
 71
     2
 72
     1
  1
Name
  7
SLDTEXTSTYLE0
 73
     1
 44
1.0
  0
MTEXT
  5
90
330
1F
100
AcDbEntity
  8
0
  6
Continuous
 62
     7
370
     0
100
AcDbMText
 10
8022.2931154381
 20
1049.3028144623
 30
0.0
 40
75.0
 41
0.0
 71
     1
 72
     1
  1
Werkstoff:
  7
SLDTEXTSTYLE0
 73
     1
 44
1.0
  0
MTEXT
  5
91
330
1F
100
AcDbEntity
  8
0
  6
Continuous
 62
     7
370
     0
100
AcDbMText
 10
10243.2492951712
 20
1612.3050731487
 30
0.0
 40
75.0
 41
0.0
 71
     1
 72
     1
  1
Artikelnummer
  7
SLDTEXTSTYLE0
 73
     1
 44
1.0
  0
MTEXT
  5
92
330
1F
100
AcDbEntity
  8
0
  6
Continuous
 62
     7
370
     0
100
AcDbMText
 10
10243.6983058746
 20
993.4318913516
 30
0.0
 40
75.0
 41
0.0
 71
     1
 72
     1
  1
Hersteller
  7
SLDTEXTSTYLE0
 73
     1
 44
1.0
  0
MTEXT
  5
93
330
1F
100
AcDbEntity
  8
0
  6
Continuous
 62
     7
370
     0
100
AcDbMText
 10
10243.6983058746
 20
395.0043637266
 30
0.0
 40
75.0
 41
0.0
 71
     1
 72
     1
  1
Massstab: 1:50
  7
SLDTEXTSTYLE0
 73
     1
 44
1.0
  0
MTEXT
  5
95
330
1F
100
AcDbEntity
  8
0
  6
Continuous
 62
     7
370
     0
100
AcDbMText
 10
12463.9147213908
 20
395.0043637266
 30
0.0
 40
75.0
 41
0.0
 71
     1
 72
     1
  1
Blatt 1 von 1
  7
SLDTEXTSTYLE1
 73
     1
 44
1.0
  0
MTEXT
  5
96
330
1F
100
AcDbEntity
  8
0
  6
Continuous
 62
     7
370
     0
100
AcDbMText
 10
14150.9100625978
 20
710.7246793997
 30
0.0
 40
145.5208333333
 41
0.0
 71
     1
 72
     1
  1
A4
  7
SLDTEXTSTYLE0
 73
     1
 44
1.0
  0
MTEXT
  5
97
330
1F
100
AcDbEntity
  8
0
  6
Continuous
 62
     7
370
     0
100
AcDbMText
 10
12239.2860540881
 20
914.3859686823
 30
0.0
 40
264.5833333333
 41
0.0
 71
     2
 72
     1
  1
Feldmann GmbH
  7
SLDTEXTSTYLE0
 73
     1
 44
1.0
  0
MTEXT
  5
98
330
1F
100
AcDbEntity
  8
0
  6
Continuous
 62
     7
370
     0
100
AcDbMText
 10
9812.717449829
 20
1610.1782907916
 30
0.0
 40
75.0
 41
0.0
 71
     2
 72
     1
  1
Datum
  7
SLDTEXTSTYLE0
 73
     1
 44
1.0
  0
MTEXT
  5
99
330
1F
100
AcDbEntity
  8
0
  6
Continuous
 62
     7
370
     0
100
AcDbMText
 10
9001.3375475168
 20
1293.7465234676
 30
0.0
 40
75.0
 41
0.0
 71
     1
 72
     1
  1
CH
  7
SLDTEXTSTYLE0
 73
     1
 44
1.0
  0
MTEXT
  5
9A
330
1F
100
AcDbEntity
  8
0
  6
Continuous
 62
     7
370
     0
100
AcDbMText
 10
9569.8649653201
 20
1293.848354147
 30
0.0
 40
75.0
 41
0.0
 71
     1
 72
     1
  1
01.09.2014
  7
SLDTEXTSTYLE0
 73
     1
 44
1.0
  0
MTEXT
  5
9B
330
1F
100
AcDbEntity
  8
0
  6
Continuous
 62
     7
370
     0
100
AcDbMText
 10
9084.2564685978
 20
395.6218184716
 30
0.0
 40
75.0
 41
0.0
 71
     2
 72
     1
  1
Gewicht 11.172 kg
  7
SLDTEXTSTYLE0
 73
     1
 44
1.0
  0
MTEXT
  5
9C
330
1F
100
AcDbEntity
  8
0
  6
Continuous
 62
     7
370
     0
100
AcDbMText
 10
9075.9413027092
 20
779.8860092213
 30
0.0
 40
119.0625
 41
0.0
 71
     2
 72
     1
  1
1.0037 (S235JR)
  7
SLDTEXTSTYLE0
 73
     1
 44
1.0
  0
MTEXT
  5
9D
330
1F
100
AcDbEntity
  8
0
  6
Continuous
 62
     7
370
     0
100
AcDbMText
 10
11531.726964249
 20
1468.8109809734
 30
0.0
 40
211.6666666667
 41
0.0
 71
     2
 72
     1
  1
6109
  7
SLDTEXTSTYLE0
 73
     1
 44
1.0
  0
MTEXT
  5
9E
330
1F
100
AcDbEntity
  8
0
  6
Continuous
 62
     7
370
     0
100
AcDbMText
 10
9087.6500891234
 20
1602.9519504981
 30
0.0
 40
75.0
 41
0.0
 71
     2
 72
     1
  1
Signatur
  7
SLDTEXTSTYLE0
 73
     1
 44
1.0
  0
LINE
  5
9F
330
1F
100
AcDbEntity
  8
0
  6
Continuous
 62
     7
370
    15
100
AcDbLine
 10
3826.5136795061
 20
8548.2578424878
 30
0.0
 11
3824.8641499494
 21
8547.8406733043
 31
0.0
  0
ARC
  5
A0
330
1F
100
AcDbEntity
  8
0
  6
Continuous
 62
     7
370
    15
100
AcDbCircle
 10
3827.5677890686
 20
8544.0897131038
 30
0.0
 40
4.299354249100133
100
AcDbArc
 50
100.6424541909
 51
104.1923873892
  0
ARC
  5
A1
330
1F
100
AcDbEntity
  8
0
  6
Continuous
 62
     7
370
    15
100
AcDbCircle
 10
3823.8099512155
 20
8552.0092472468
 30
0.0
 40
4.299807972959296
100
AcDbArc
 50
281.1683790959
 51
282.6803133896
  0
LINE
  5
A2
330
1F
100
AcDbEntity
  8
0
  6
Continuous
 62
     7
370
    15
100
AcDbLine
 10
3824.6427936655
 20
8547.7908680356
 30
0.0
 11
3823.2501111169
 21
8547.5159071527
 31
0.0
  0
ARC
  5
A3
330
1F
100
AcDbEntity
  8
0
  6
Continuous
 62
     7
370
    15
100
AcDbCircle
 10
3824.0827472771
 20
8543.2984959614
 30
0.0
 40
4.298818588905221
100
AcDbArc
 50
101.1681802716
 51
104.8206501635
  0
ARC
  5
A4
330
1F
100
AcDbEntity
  8
0
  6
Continuous
 62
     7
370
    15
100
AcDbCircle
 10
3823.8102584818
 20
8552.0078827837
 30
0.0
 40
4.298409340749272
100
AcDbArc
 50
282.6803099589
 51
284.1925725209
  0
ARC
  5
A5
330
1F
100
AcDbEntity
  8
0
  6
Continuous
 62
     7
370
    15
100
AcDbCircle
 10
3824.080245435
 20
8543.3067463621
 30
0.0
 40
4.290192887916108
100
AcDbArc
 50
108.475239209
 51
112.1326039783
  0
ARC
  5
A6
330
1F
100
AcDbEntity
  8
0
  6
Continuous
 62
     7
370
    15
100
AcDbCircle
 10
3824.078176015
 20
8543.3118267582
 30
0.0
 40
4.284707186936456
100
AcDbArc
 50
112.1325653734
 51
115.7930516885
  0
ARC
  5
A7
330
1F
100
AcDbEntity
  8
0
  6
Continuous
 62
     7
370
    15
100
AcDbCircle
 10
3824.0754978463
 20
8543.3173627557
 30
0.0
 40
4.27855740250913
100
AcDbArc
 50
115.7930180348
 51
119.4570117111
  0
ARC
  5
A8
330
1F
100
AcDbEntity
  8
0
  6
Continuous
 62
     7
370
    15
100
AcDbCircle
 10
3824.072195533
 20
8543.3232055407
 30
0.0
 40
4.271845964051477
100
AcDbArc
 50
119.4569835753
 51
123.124814539
  0
ARC
  5
A9
330
1F
100
AcDbEntity
  8
0
  6
Continuous
 62
     7
370
    15
100
AcDbCircle
 10
3824.0682806611
 20
8543.3292022462
 30
0.0
 40
4.26468449106634
100
AcDbArc
 50
123.1247924088
 51
126.7967290667
  0
ARC
  5
AA
330
1F
100
AcDbEntity
  8
0
  6
Continuous
 62
     7
370
    15
100
AcDbCircle
 10
3824.0637918276
 20
8543.3352013572
 30
0.0
 40
4.257191897541742
100
AcDbArc
 50
126.7967133411
 51
130.4729578456
  0
ARC
  5
AB
330
1F
100
AcDbEntity
  8
0
  6
Continuous
 62
     7
370
    15
100
AcDbCircle
 10
3847.9009827343
 20
8515.3993053397
 30
0.0
 40
40.98083491676682
100
AcDbArc
 50
130.4734634712
 51
131.5145916018
  0
ARC
  5
AC
330
1F
100
AcDbEntity
  8
0
  6
Continuous
 62
     7
370
    15
100
AcDbCircle
 10
3824.0817474393
 20
8543.3022610417
 30
0.0
 40
4.294923015376162
100
AcDbArc
 50
104.8206036224
 51
108.4752821293
  0
ARC
  5
AD
330
1F
100
AcDbEntity
  8
0
  6
Continuous
 62
     7
370
    15
100
AcDbCircle
 10
3847.8726598709
 20
8515.4307208508
 30
0.0
 40
40.93853519216775
100
AcDbArc
 50
132.5560761967
 51
133.5979203318
  0
ARC
  5
AE
330
1F
100
AcDbEntity
  8
0
  6
Continuous
 62
     7
370
    15
100
AcDbCircle
 10
3847.858023083
 20
8515.446092035
 30
0.0
 40
40.91730999812088
100
AcDbArc
 50
133.59792026
 51
134.6401246622
  0
ARC
  5
AF
330
1F
100
AcDbEntity
  8
0
  6
Continuous
 62
     7
370
    15
100
AcDbCircle
 10
3847.8431002004
 20
8515.4612035389
 30
0.0
 40
40.89607206092796
100
AcDbArc
 50
134.640124635
 51
135.6826898324
  0
ARC
  5
B0
330
1F
100
AcDbEntity
  8
0
  6
Continuous
 62
     7
370
    15
100
AcDbCircle
 10
3847.8279158564
 20
8515.4760302959
 30
0.0
 40
40.87484950162835
100
AcDbArc
 50
135.68268985
 51
136.7256158935
  0
ARC
  5
B1
330
1F
100
AcDbEntity
  8
0
  6
Continuous
 62
     7
370
    15
100
AcDbCircle
 10
3847.8124958259
 20
8515.4905484482
 30
0.0
 40
40.85367040609125
100
AcDbArc
 50
136.725615956
 51
137.768902418
  0
ARC
  5
B2
330
1F
100
AcDbEntity
  8
0
  6
Continuous
 62
     7
370
    15
100
AcDbCircle
 10
3847.7968669546
 20
8515.5047354113
 30
0.0
 40
40.83256278804494
100
AcDbArc
 50
137.7689025254
 51
138.8125484994
  0
ARC
  5
B3
330
1F
100
AcDbEntity
  8
0
  6
Continuous
 62
     7
370
    15
100
AcDbCircle
 10
3820.2532145799
 20
8539.6080420317
 30
0.0
 40
4.231713538109575
100
AcDbArc
 50
138.8259498863
 51
142.7518317152
  0
ARC
  5
B4
330
1F
100
AcDbEntity
  8
0
  6
Continuous
 62
     7
370
    15
100
AcDbCircle
 10
3820.2468685111
 20
8539.6128689653
 30
0.0
 40
4.223740340812352
100
AcDbArc
 50
142.7518488957
 51
146.6982969022
  0
ARC
  5
B5
330
1F
100
AcDbEntity
  8
0
  6
Continuous
 62
     7
370
    15
100
AcDbCircle
 10
3820.2405343288
 20
8539.6170322974
 30
0.0
 40
4.216160420207348
100
AcDbArc
 50
146.6983228259
 51
150.6495003658
  0
ARC
  5
B6
330
1F
100
AcDbEntity
  8
0
  6
Continuous
 62
     7
370
    15
100
AcDbCircle
 10
3820.2343950808
 20
8539.620487486
 30
0.0
 40
4.209115657054288
100
AcDbArc
 50
150.6495345938
 51
154.6051204784
  0
ARC
  5
B7
330
1F
100
AcDbEntity
  8
0
  6
Continuous
 62
     7
370
    15
100
AcDbCircle
 10
3820.2286347076
 20
8539.6232254854
 30
0.0
 40
4.202737684774551
100
AcDbArc
 50
154.6051623997
 51
158.5647499978
  0
ARC
  5
B8
330
1F
100
AcDbEntity
  8
0
  6
Continuous
 62
     7
370
    15
100
AcDbCircle
 10
3820.2234306219
 20
8539.6252724822
 30
0.0
 40
4.197145485677455
100
AcDbArc
 50
158.5647988381
 51
162.5279034726
  0
ARC
  5
B9
330
1F
100
AcDbEntity
  8
0
  6
Continuous
 62
     7
370
    15
100
AcDbCircle
 10
3820.2189465203
 20
8539.6266881199
 30
0.0
 40
4.192443232812244
100
AcDbArc
 50
162.5279583075
 51
166.494026326
  0
ARC
  5
BA
330
1F
100
AcDbEntity
  8
0
  6
Continuous
 62
     7
370
    15
100
AcDbCircle
 10
3820.2153257277
 20
8539.6275622887
 30
0.0
 40
4.188718411938165
100
AcDbArc
 50
166.4940860987
 51
170.4625054541
  0
ARC
  5
BB
330
1F
100
AcDbEntity
  8
0
  6
Continuous
 62
     7
370
    15
100
AcDbCircle
 10
3788.3337861389
 20
8544.9840558288
 30
0.0
 40
28.13966833406374
100
AcDbArc
 50
348.6089096893
 51
350.4626991457
  0
ARC
  5
BC
330
1F
100
AcDbEntity
  8
0
  6
Continuous
 62
     7
370
    15
100
AcDbCircle
 10
3788.3240113629
 20
8544.9860283522
 30
0.0
 40
28.14964014858446
100
AcDbArc
 50
346.7555517435
 51
348.608903375
  0
ARC
  5
BD
330
1F
100
AcDbEntity
  8
0
  6
Continuous
 62
     7
370
    15
100
AcDbCircle
 10
3788.3128273937
 20
8544.9886637754
 30
0.0
 40
28.16113043206535
100
AcDbArc
 50
344.9026981804
 51
346.7555456204
  0
ARC
  5
BE
330
1F
100
AcDbEntity
  8
0
  6
Continuous
 62
     7
370
    15
100
AcDbCircle
 10
3788.3003133889
 20
8544.9920425379
 30
0.0
 40
28.17409254392635
100
AcDbArc
 50
343.0504134691
 51
344.9026925706
  0
ARC
  5
BF
330
1F
100
AcDbEntity
  8
0
  6
Continuous
 62
     7
370
    15
100
AcDbCircle
 10
3819.2607474412
 20
8535.5562566606
 30
0.0
 40
4.192287108900945
100
AcDbArc
 50
163.0502687715
 51
166.2524405555
  0
ARC
  5
C0
330
1F
100
AcDbEntity
  8
0
  6
Continuous
 62
     7
370
    15
100
AcDbCircle
 10
3819.2577772034
 20
8535.5569856969
 30
0.0
 40
4.189228710359917
100
AcDbArc
 50
166.2524718796
 51
169.4562021989
  0
ARC
  5
C1
330
1F
100
AcDbEntity
  8
0
  6
Continuous
 62
     7
370
    15
100
AcDbCircle
 10
3819.2554359191
 20
8535.5574239332
 30
0.0
 40
4.186846766337149
100
AcDbArc
 50
169.4562352068
 51
172.66118066
  0
ARC
  5
C2
330
1F
100
AcDbEntity
  8
0
  6
Continuous
 62
     7
370
    15
100
AcDbCircle
 10
3819.2537733394
 20
8535.5576405834
 30
0.0
 40
4.185170132115975
100
AcDbArc
 50
172.661214928
 51
175.8670163969
  0
ARC
  5
C3
330
1F
100
AcDbEntity
  8
0
  6
Continuous
 62
     7
370
    15
100
AcDbCircle
 10
3819.2528249737
 20
8535.5577116808
 30
0.0
 40
4.184219108659371
100
AcDbArc
 50
175.8670514825
 51
179.0733387563
  0
ARC
  5
C4
330
1F
100
AcDbEntity
  8
0
  6
Continuous
 62
     7
370
    15
100
AcDbCircle
 10
3819.2526111424
 20
8535.5577177284
 30
0.0
 40
4.184005207423354
100
AcDbArc
 50
179.0733742048
 51
182.2797707697
  0
ARC
  5
C5
330
1F
100
AcDbEntity
  8
0
  6
Continuous
 62
     7
370
    15
100
AcDbCircle
 10
3819.2531364332
 20
8535.5577412244
 30
0.0
 40
4.184531017158604
100
AcDbArc
 50
182.2798061211
 51
185.4859340445
  0
ARC
  5
C6
330
1F
100
AcDbEntity
  8
0
  6
Continuous
 62
     7
370
    15
100
AcDbCircle
 10
3819.2543895797
 20
8535.5578641319
 30
0.0
 40
4.185790173980487
100
AcDbArc
 50
185.4859688399
 51
188.6914537663
  0
LINE
  5
C7
330
1F
100
AcDbEntity
  8
0
  6
Continuous
 62
     7
370
    15
100
AcDbLine
 10
3815.1166675788
 20
8534.9253352639
 30
0.0
 11
3815.4111797166
 21
8532.9987425963
 31
0.0
  0
ARC
  5
C8
330
1F
100
AcDbEntity
  8
0
  6
Continuous
 62
     7
370
    15
100
AcDbCircle
 10
3819.5507445736
 20
8533.6315535978
 30
0.0
 40
4.187654385701592
100
AcDbArc
 50
188.6914602503
 51
191.5899695222
  0
ARC
  5
C9
330
1F
100
AcDbEntity
  8
0
  6
Continuous
 62
     7
370
    15
100
AcDbCircle
 10
3819.5530539673
 20
8533.6320290227
 30
0.0
 40
4.190012207732374
100
AcDbArc
 50
191.5899935768
 51
194.4874152572
  0
ARC
  5
CA
330
1F
100
AcDbEntity
  8
0
  6
Continuous
 62
     7
370
    15
100
AcDbCircle
 10
3819.5558648026
 20
8533.6327570227
 30
0.0
 40
4.192915787677055
100
AcDbArc
 50
194.4874381083
 51
197.3835218565
  0
ARC
  5
CB
330
1F
100
AcDbEntity
  8
0
  6
Continuous
 62
     7
370
    15
100
AcDbCircle
 10
3819.5591286373
 20
8533.6337804588
 30
0.0
 40
4.196336319197012
100
AcDbArc
 50
197.3835432665
 51
200.2780528579
  0
ARC
  5
CC
330
1F
100
AcDbEntity
  8
0
  6
Continuous
 62
     7
370
    15
100
AcDbCircle
 10
3819.5627897241
 20
8533.6351346853
 30
0.0
 40
4.200239841153751
100
AcDbArc
 50
200.2780726065
 51
203.1707883757
  0
ARC
  5
CD
330
1F
100
AcDbEntity
  8
0
  6
Continuous
 62
     7
370
    15
100
AcDbCircle
 10
3819.5667862247
 20
8533.636846604
 30
0.0
 40
4.204587562489355
100
AcDbArc
 50
203.1708062624
 51
206.0615273506
  0
ARC
  5
CE
330
1F
100
AcDbEntity
  8
0
  6
Continuous
 62
     7
370
    15
100
AcDbCircle
 10
3819.5710515537
 20
8533.6389339128
 30
0.0
 40
4.209336234758596
100
AcDbArc
 50
206.0615431963
 51
208.9500895765
  0
ARC
  5
CF
330
1F
100
AcDbEntity
  8
0
  6
Continuous
 62
     7
370
    15
100
AcDbCircle
 10
3819.5755158231
 20
8533.6414045638
 30
0.0
 40
4.21443856918741
100
AcDbArc
 50
208.9501032259
 51
211.8363174873
  0
LINE
  5
D0
330
1F
100
AcDbEntity
  8
0
  6
Continuous
 62
     7
370
    15
100
AcDbLine
 10
3815.9951040697
 20
8531.4183117031
 30
0.0
 11
3818.3120185685
 21
8527.6867494128
 31
0.0
  0
ARC
  5
D1
330
1F
100
AcDbEntity
  8
0
  6
Continuous
 62
     7
370
    15
100
AcDbCircle
 10
3821.8975282833
 20
8529.913021354
 30
0.0
 40
4.22044591656403
100
AcDbArc
 50
211.8364806676
 51
215.3430375059
  0
ARC
  5
D2
330
1F
100
AcDbEntity
  8
0
  6
Continuous
 62
     7
370
    15
100
AcDbCircle
 10
3821.9031805283
 20
8529.9170311029
 30
0.0
 40
4.227375992922375
100
AcDbArc
 50
215.3430525285
 51
218.8457754475
  0
ARC
  5
D3
330
1F
100
AcDbEntity
  8
0
  6
Continuous
 62
     7
370
    15
100
AcDbCircle
 10
3821.9087772702
 20
8529.9215392664
 30
0.0
 40
4.234562581647109
100
AcDbArc
 50
218.8457849411
 51
222.3445430803
  0
ARC
  5
D4
330
1F
100
AcDbEntity
  8
0
  6
Continuous
 62
     7
370
    15
100
AcDbCircle
 10
3821.9141996866
 20
8529.9264813836
 30
0.0
 40
4.241899278616227
100
AcDbArc
 50
222.3445469397
 51
225.8392690389
  0
ARC
  5
D5
330
1F
100
AcDbEntity
  8
0
  6
Continuous
 62
     7
370
    15
100
AcDbCircle
 10
3821.9193398342
 20
8529.9317741758
 30
0.0
 40
4.24927727066744
100
AcDbArc
 50
225.8392672452
 51
229.3299423044
  0
ARC
  5
D6
330
1F
100
AcDbEntity
  8
0
  6
Continuous
 62
     7
370
    15
100
AcDbCircle
 10
3821.9241039789
 20
8529.9373180221
 30
0.0
 40
4.256586942743603
100
AcDbArc
 50
229.3299349233
 51
232.8166119522
  0
ARC
  5
D7
330
1F
100
AcDbEntity
  8
0
  6
Continuous
 62
     7
370
    15
100
AcDbCircle
 10
3821.9284154344
 20
8529.9429999971
 30
0.0
 40
4.263719508060209
100
AcDbArc
 50
232.8165991302
 51
236.2993860138
  0
ARC
  5
D8
330
1F
100
AcDbEntity
  8
0
  6
Continuous
 62
     7
370
    15
100
AcDbCircle
 10
3821.9322168152
 20
8529.9486973715
 30
0.0
 40
4.270568637060076
100
AcDbArc
 50
236.2993679741
 51
239.778429496
  0
LINE
  5
D9
330
1F
100
AcDbEntity
  8
0
  6
Continuous
 62
     7
370
    15
100
AcDbLine
 10
3819.7826462973
 20
8526.258561588
 30
0.0
 11
3822.5766680379
 21
8524.6309636301
 31
0.0
  0
ARC
  5
DA
330
1F
100
AcDbEntity
  8
0
  6
Continuous
 62
     7
370
    15
100
AcDbCircle
 10
3824.7298414168
 20
8528.3273132163
 30
0.0
 40
4.277750855682685
100
AcDbArc
 50
239.7786243069
 51
244.0644577878
  0
ARC
  5
DB
330
1F
100
AcDbEntity
  8
0
  6
Continuous
 62
     7
370
    15
100
AcDbCircle
 10
3824.733001774
 20
8528.3338023044
 30
0.0
 40
4.284968618927055
100
AcDbArc
 50
244.0644042869
 51
248.3454224749
  0
ARC
  5
DC
330
1F
100
AcDbEntity
  8
0
  6
Continuous
 62
     7
370
    15
100
AcDbCircle
 10
3824.7353323298
 20
8528.3396595461
 30
0.0
 40
4.291272486661825
100
AcDbArc
 50
248.3453597651
 51
252.6221834087
  0
ARC
  5
DD
330
1F
100
AcDbEntity
  8
0
  6
Continuous
 62
     7
370
    15
100
AcDbCircle
 10
3824.7369042688
 20
8528.3446647204
 30
0.0
 40
4.296518698047777
100
AcDbArc
 50
252.6221128987
 51
256.8954535774
  0
LINE
  5
DE
330
1F
100
AcDbEntity
  8
0
  6
Continuous
 62
     7
370
    15
100
AcDbLine
 10
3826.5929705057
 20
8523.5011696956
 30
0.0
 11
3823.7627606549
 21
8524.1600357137
 31
0.0
  0
ARC
  5
DF
330
1F
100
AcDbEntity
  8
0
  6
Continuous
 62
     7
370
    15
100
AcDbCircle
 10
3827.5679604573
 20
8527.6893693204
 30
0.0
 40
4.30018892628156
100
AcDbArc
 50
256.8952595437
 51
260.1728944986
  0
ARC
  5
E0
330
1F
100
AcDbEntity
  8
0
  6
Continuous
 62
     7
370
    15
100
AcDbCircle
 10
3827.5683695037
 20
8527.6917147864
 30
0.0
 40
4.302569792145174
100
AcDbArc
 50
260.1728581361
 51
263.4492836738
  0
ARC
  5
E1
330
1F
100
AcDbEntity
  8
0
  6
Continuous
 62
     7
370
    15
100
AcDbCircle
 10
3827.5685554453
 20
8527.6933092976
 30
0.0
 40
4.304175105917705
100
AcDbArc
 50
263.4492461142
 51
266.7248568243
  0
ARC
  5
E2
330
1F
100
AcDbEntity
  8
0
  6
Continuous
 62
     7
370
    15
100
AcDbCircle
 10
3827.568604485
 20
8527.6941159218
 30
0.0
 40
4.3049832143611
100
AcDbArc
 50
266.7248185415
 51
273.2752199202
  0
ARC
  5
E3
330
1F
100
AcDbEntity
  8
0
  6
Continuous
 62
     7
370
    15
100
AcDbCircle
 10
3827.5686564098
 20
8527.6933094627
 30
0.0
 40
4.304175105913043
100
AcDbArc
 50
273.2751431757
 51
276.5507538858
  0
ARC
  5
E4
330
1F
100
AcDbEntity
  8
0
  6
Continuous
 62
     7
370
    15
100
AcDbCircle
 10
3827.5688423514
 20
8527.6917149515
 30
0.0
 40
4.302569792143459
100
AcDbArc
 50
276.5507163262
 51
279.8271418639
  0
ARC
  5
E5
330
1F
100
AcDbEntity
  8
0
  6
Continuous
 62
     7
370
    15
100
AcDbCircle
 10
3827.5692513978
 20
8527.6893694855
 30
0.0
 40
4.300188926279846
100
AcDbArc
 50
279.8271055014
 51
283.1047404563
  0
LINE
  5
E6
330
1F
100
AcDbEntity
  8
0
  6
Continuous
 62
     7
370
    15
100
AcDbLine
 10
3828.5442413589
 20
8523.5011696956
 30
0.0
 11
3831.3744512097
 21
8524.160036645
 31
0.0
  0
ARC
  5
E7
330
1F
100
AcDbEntity
  8
0
  6
Continuous
 62
     7
370
    15
100
AcDbCircle
 10
3830.4003075863
 20
8528.3446648855
 30
0.0
 40
4.296518698047913
100
AcDbArc
 50
283.1045464226
 51
287.3778871013
  0
ARC
  5
E8
330
1F
100
AcDbEntity
  8
0
  6
Continuous
 62
     7
370
    15
100
AcDbCircle
 10
3830.4018795253
 20
8528.3396597112
 30
0.0
 40
4.291272486659966
100
AcDbArc
 50
287.3778165913
 51
291.6546402349
  0
ARC
  5
E9
330
1F
100
AcDbEntity
  8
0
  6
Continuous
 62
     7
370
    15
100
AcDbCircle
 10
3830.4042100811
 20
8528.3338024695
 30
0.0
 40
4.284968618925364
100
AcDbArc
 50
291.6545775251
 51
295.9355957131
  0
ARC
  5
EA
330
1F
100
AcDbEntity
  8
0
  6
Continuous
 62
     7
370
    15
100
AcDbCircle
 10
3830.4073704383
 20
8528.3273133814
 30
0.0
 40
4.277750855679656
100
AcDbArc
 50
295.9355422122
 51
300.2213756931
  0
LINE
  5
EB
330
1F
100
AcDbEntity
  8
0
  6
Continuous
 62
     7
370
    15
100
AcDbLine
 10
3835.3545655672
 20
8526.258561588
 30
0.0
 11
3832.5605438266
 21
8524.6309645615
 31
0.0
  0
ARC
  5
EC
330
1F
100
AcDbEntity
  8
0
  6
Continuous
 62
     7
370
    15
100
AcDbCircle
 10
3833.2049950399
 20
8529.9486975366
 30
0.0
 40
4.270568637061647
100
AcDbArc
 50
300.221570504
 51
303.7006320259
  0
ARC
  5
ED
330
1F
100
AcDbEntity
  8
0
  6
Continuous
 62
     7
370
    15
100
AcDbCircle
 10
3833.2087964207
 20
8529.9430001622
 30
0.0
 40
4.263719508059006
100
AcDbArc
 50
303.7006139863
 51
307.1834008698
  0
ARC
  5
EE
330
1F
100
AcDbEntity
  8
0
  6
Continuous
 62
     7
370
    15
100
AcDbCircle
 10
3833.2131078762
 20
8529.9373181872
 30
0.0
 40
4.256586942741961
100
AcDbArc
 50
307.1833880478
 51
310.6700650767
  0
ARC
  5
EF
330
1F
100
AcDbEntity
  8
0
  6
Continuous
 62
     7
370
    15
100
AcDbCircle
 10
3833.2178720209
 20
8529.9317743409
 30
0.0
 40
4.249277270666551
100
AcDbArc
 50
310.6700576955
 51
314.1607327548
  0
ARC
  5
F0
330
1F
100
AcDbEntity
  8
0
  6
Continuous
 62
     7
370
    15
100
AcDbCircle
 10
3833.2230121685
 20
8529.9264815487
 30
0.0
 40
4.241899278615593
100
AcDbArc
 50
314.1607309611
 51
317.6554530603
  0
ARC
  5
F1
330
1F
100
AcDbEntity
  8
0
  6
Continuous
 62
     7
370
    15
100
AcDbCircle
 10
3833.2284345849
 20
8529.9215394315
 30
0.0
 40
4.23456258164867
100
AcDbArc
 50
317.6554569197
 51
321.1542150589
  0
ARC
  5
F2
330
1F
100
AcDbEntity
  8
0
  6
Continuous
 62
     7
370
    15
100
AcDbCircle
 10
3833.2340313268
 20
8529.917031268
 30
0.0
 40
4.227375992923283
100
AcDbArc
 50
321.1542245525
 51
324.6569474715
  0
ARC
  5
F3
330
1F
100
AcDbEntity
  8
0
  6
Continuous
 62
     7
370
    15
100
AcDbCircle
 10
3833.2396835718
 20
8529.9130215191
 30
0.0
 40
4.220445916562307
100
AcDbArc
 50
324.6569624941
 51
328.1635193324
  0
LINE
  5
F4
330
1F
100
AcDbEntity
  8
0
  6
Continuous
 62
     7
370
    15
100
AcDbLine
 10
3839.1421077949
 20
8531.4183121688
 30
0.0
 11
3836.8251932961
 21
8527.6867494128
 31
0.0
  0
ARC
  5
F5
330
1F
100
AcDbEntity
  8
0
  6
Continuous
 62
     7
370
    15
100
AcDbCircle
 10
3835.561696032
 20
8533.6414047289
 30
0.0
 40
4.214438569184292
100
AcDbArc
 50
328.1636825126
 51
331.0498967741
  0
ARC
  5
F6
330
1F
100
AcDbEntity
  8
0
  6
Continuous
 62
     7
370
    15
100
AcDbCircle
 10
3835.5661603014
 20
8533.6389340779
 30
0.0
 40
4.20933623476023
100
AcDbArc
 50
331.0499104235
 51
333.9384568037
  0
ARC
  5
F7
330
1F
100
AcDbEntity
  8
0
  6
Continuous
 62
     7
370
    15
100
AcDbCircle
 10
3835.5704256304
 20
8533.6368467691
 30
0.0
 40
4.204587562481069
100
AcDbArc
 50
333.9384726494
 51
336.8291937376
  0
ARC
  5
F8
330
1F
100
AcDbEntity
  8
0
  6
Continuous
 62
     7
370
    15
100
AcDbCircle
 10
3835.574422131
 20
8533.6351348504
 30
0.0
 40
4.200239841150804
100
AcDbArc
 50
336.8292116242
 51
339.7219273935
  0
ARC
  5
F9
330
1F
100
AcDbEntity
  8
0
  6
Continuous
 62
     7
370
    15
100
AcDbCircle
 10
3835.5780832178
 20
8533.6337806239
 30
0.0
 40
4.196336319204184
100
AcDbArc
 50
339.7219471421
 51
342.6164567335
  0
ARC
  5
FA
330
1F
100
AcDbEntity
  8
0
  6
Continuous
 62
     7
370
    15
100
AcDbCircle
 10
3835.5813470525
 20
8533.6327571878
 30
0.0
 40
4.192915787679287
100
AcDbArc
 50
342.6164781435
 51
345.5125618917
  0
ARC
  5
FB
330
1F
100
AcDbEntity
  8
0
  6
Continuous
 62
     7
370
    15
100
AcDbCircle
 10
3835.5841578878
 20
8533.6320291878
 30
0.0
 40
4.190012207723179
100
AcDbArc
 50
345.5125847428
 51
348.4100064233
  0
ARC
  5
FC
330
1F
100
AcDbEntity
  8
0
  6
Continuous
 62
     7
370
    15
100
AcDbCircle
 10
3835.5864672815
 20
8533.6315537629
 30
0.0
 40
4.187654385700781
100
AcDbArc
 50
348.4100304778
 51
351.3085397498
  0
LINE
  5
FD
330
1F
100
AcDbEntity
  8
0
  6
Continuous
 62
     7
370
    15
100
AcDbLine
 10
3840.0205442858
 20
8534.9253354386
 30
0.0
 11
3839.726032148
 21
8532.9987425963
 31
0.0
  0
ARC
  5
FE
330
1F
100
AcDbEntity
  8
0
  6
Continuous
 62
     7
370
    15
100
AcDbCircle
 10
3835.8828222754
 20
8535.557864297
 30
0.0
 40
4.185790174018347
100
AcDbArc
 50
351.3085462337
 51
354.5140311022
  0
ARC
  5
FF
330
1F
100
AcDbEntity
  8
0
  6
Continuous
 62
     7
370
    15
100
AcDbCircle
 10
3835.8840754219
 20
8535.5577413895
 30
0.0
 40
4.184531017172966
100
AcDbArc
 50
354.5140658977
 51
357.7201938534
  0
ARC
  5
100
330
1F
100
AcDbEntity
  8
0
  6
Continuous
 62
     7
370
    15
100
AcDbCircle
 10
3835.8846007127
 20
8535.5577178935
 30
0.0
 40
4.184005207424197
100
AcDbArc
 50
357.7202292048
 51
0.926625802
  0
ARC
  5
101
330
1F
100
AcDbEntity
  8
0
  6
Continuous
 62
     7
370
    15
100
AcDbCircle
 10
3835.8843868813
 20
8535.5577118459
 30
0.0
 40
4.184219108664277
100
AcDbArc
 50
0.9266612506
 51
4.1329485567
  0
ARC
  5
102
330
1F
100
AcDbEntity
  8
0
  6
Continuous
 62
     7
370
    15
100
AcDbCircle
 10
3835.8834385157
 20
8535.5576407485
 30
0.0
 40
4.185170132139992
100
AcDbArc
 50
4.1329836423
 51
7.3387851436
  0
ARC
  5
103
330
1F
100
AcDbEntity
  8
0
  6
Continuous
 62
     7
370
    15
100
AcDbCircle
 10
3835.881775936
 20
8535.5574240983
 30
0.0
 40
4.18684676639479
100
AcDbArc
 50
7.3388194116
 51
10.543764897
  0
ARC
  5
104
330
1F
100
AcDbEntity
  8
0
  6
Continuous
 62
     7
370
    15
100
AcDbCircle
 10
3835.8794346516
 20
8535.556985862
 30
0.0
 40
4.18922871046417
100
AcDbArc
 50
10.5437979049
 51
13.7475282566
  0
ARC
  5
105
330
1F
100
AcDbEntity
  8
0
  6
Continuous
 62
     7
370
    15
100
AcDbCircle
 10
3835.8764644137
 20
8535.5562568257
 30
0.0
 40
4.192287109061534
100
AcDbArc
 50
13.7475595806
 51
16.9497313969
  0
ARC
  5
106
330
1F
100
AcDbEntity
  8
0
  6
Continuous
 62
     7
370
    15
100
AcDbCircle
 10
3866.8368984663
 20
8544.992042703
 30
0.0
 40
28.17409254396676
100
AcDbArc
 50
195.0973074294
 51
196.9495865059
  0
ARC
  5
107
330
1F
100
AcDbEntity
  8
0
  6
Continuous
 62
     7
370
    15
100
AcDbCircle
 10
3866.8243844614
 20
8544.9886639405
 30
0.0
 40
28.16113043206628
100
AcDbArc
 50
193.2444543796
 51
195.0973018196
  0
ARC
  5
108
330
1F
100
AcDbEntity
  8
0
  6
Continuous
 62
     7
370
    15
100
AcDbCircle
 10
3866.8132004922
 20
8544.9860285173
 30
0.0
 40
28.14964014859347
100
AcDbArc
 50
191.391096625
 51
193.2444482565
  0
ARC
  5
109
330
1F
100
AcDbEntity
  8
0
  6
Continuous
 62
     7
370
    15
100
AcDbCircle
 10
3866.8034257162
 20
8544.9840559939
 30
0.0
 40
28.13966833408147
100
AcDbArc
 50
189.5373008543
 51
191.3910903106
  0
ARC
  5
10A
330
1F
100
AcDbEntity
  8
0
  6
Continuous
 62
     7
370
    15
100
AcDbCircle
 10
3834.9218861274
 20
8539.6275624538
 30
0.0
 40
4.18871841193507
100
AcDbArc
 50
9.537494546
 51
13.5059139013
  0
ARC
  5
10B
330
1F
100
AcDbEntity
  8
0
  6
Continuous
 62
     7
370
    15
100
AcDbCircle
 10
3834.9182653348
 20
8539.626688285
 30
0.0
 40
4.192443232811579
100
AcDbArc
 50
13.505973674
 51
17.4720416925
  0
ARC
  5
10C
330
1F
100
AcDbEntity
  8
0
  6
Continuous
 62
     7
370
    15
100
AcDbCircle
 10
3834.9137812332
 20
8539.6252726473
 30
0.0
 40
4.197145485677889
100
AcDbArc
 50
17.4720965274
 51
21.4352011619
  0
ARC
  5
10D
330
1F
100
AcDbEntity
  8
0
  6
Continuous
 62
     7
370
    15
100
AcDbCircle
 10
3834.9085771475
 20
8539.6232256505
 30
0.0
 40
4.202737684771501
100
AcDbArc
 50
21.4352500022
 51
25.3948376003
  0
ARC
  5
10E
330
1F
100
AcDbEntity
  8
0
  6
Continuous
 62
     7
370
    15
100
AcDbCircle
 10
3834.9028167743
 20
8539.6204876511
 30
0.0
 40
4.20911565705627
100
AcDbArc
 50
25.3948795216
 51
29.3504654062
  0
ARC
  5
10F
330
1F
100
AcDbEntity
  8
0
  6
Continuous
 62
     7
370
    15
100
AcDbCircle
 10
3834.8966775263
 20
8539.6170324625
 30
0.0
 40
4.216160420207745
100
AcDbArc
 50
29.3504996342
 51
33.3016771741
  0
ARC
  5
110
330
1F
100
AcDbEntity
  8
0
  6
Continuous
 62
     7
370
    15
100
AcDbCircle
 10
3834.890343344
 20
8539.6128691304
 30
0.0
 40
4.223740340816629
100
AcDbArc
 50
33.3017030978
 51
37.2481511043
  0
ARC
  5
111
330
1F
100
AcDbEntity
  8
0
  6
Continuous
 62
     7
370
    15
100
AcDbCircle
 10
3834.8839972752
 20
8539.6080421968
 30
0.0
 40
4.231713573438326
100
AcDbArc
 50
37.2481682848
 51
41.1740578102
  0
ARC
  5
112
330
1F
100
AcDbEntity
  8
0
  6
Continuous
 62
     7
370
    15
100
AcDbCircle
 10
3807.3403448987
 20
8515.5047356282
 30
0.0
 40
40.83256280313178
100
AcDbArc
 50
41.1874522418
 51
42.2310982155
  0
ARC
  5
113
330
1F
100
AcDbEntity
  8
0
  6
Continuous
 62
     7
370
    15
100
AcDbCircle
 10
3807.3247160275
 20
8515.4905486649
 30
0.0
 40
40.85367042120882
100
AcDbArc
 50
42.2310983229
 51
43.2743847845
  0
ARC
  5
114
330
1F
100
AcDbEntity
  8
0
  6
Continuous
 62
     7
370
    15
100
AcDbCircle
 10
3807.3092959972
 20
8515.4760305124
 30
0.0
 40
40.87484951677673
100
AcDbArc
 50
43.274384847
 51
44.3173108901
  0
ARC
  5
115
330
1F
100
AcDbEntity
  8
0
  6
Continuous
 62
     7
370
    15
100
AcDbCircle
 10
3807.2941116535
 20
8515.4612037553
 30
0.0
 40
40.89607207604189
100
AcDbArc
 50
44.3173109078
 51
45.3598761048
  0
ARC
  5
116
330
1F
100
AcDbEntity
  8
0
  6
Continuous
 62
     7
370
    15
100
AcDbCircle
 10
3807.2791887711
 20
8515.4460922512
 30
0.0
 40
40.9173100131566
100
AcDbArc
 50
45.3598760777
 51
46.4020804795
  0
ARC
  5
117
330
1F
100
AcDbEntity
  8
0
  6
Continuous
 62
     7
370
    15
100
AcDbCircle
 10
3807.2645519835
 20
8515.4307210669
 30
0.0
 40
40.93853520715049
100
AcDbArc
 50
46.4020804077
 51
47.4439245425
  0
ARC
  5
118
330
1F
100
AcDbEntity
  8
0
  6
Continuous
 62
     7
370
    15
100
AcDbCircle
 10
3807.2502247154
 20
8515.4151164095
 30
0.0
 40
40.95971953960998
100
AcDbArc
 50
47.4439244261
 51
48.4854092977
  0
ARC
  5
119
330
1F
100
AcDbEntity
  8
0
  6
Continuous
 62
     7
370
    15
100
AcDbCircle
 10
3807.2362291205
 20
8515.3993055554
 30
0.0
 40
40.98083493168454
100
AcDbArc
 50
48.4854091371
 51
49.5265365287
  0
ARC
  5
11A
330
1F
100
AcDbEntity
  8
0
  6
Continuous
 62
     7
370
    15
100
AcDbCircle
 10
3831.0734200369
 20
8543.3352015842
 30
0.0
 40
4.257191897539473
100
AcDbArc
 50
49.5270421544
 51
53.2032866589
  0
ARC
  5
11B
330
1F
100
AcDbEntity
  8
0
  6
Continuous
 62
     7
370
    15
100
AcDbCircle
 10
3831.0689312034
 20
8543.3292024731
 30
0.0
 40
4.264684491066003
100
AcDbArc
 50
53.2032709332
 51
56.8752075912
  0
ARC
  5
11C
330
1F
100
AcDbEntity
  8
0
  6
Continuous
 62
     7
370
    15
100
AcDbCircle
 10
3831.0650163316
 20
8543.3232057677
 30
0.0
 40
4.271845964048991
100
AcDbArc
 50
56.8751854609
 51
60.5430164247
  0
ARC
  5
11D
330
1F
100
AcDbEntity
  8
0
  6
Continuous
 62
     7
370
    15
100
AcDbCircle
 10
3831.0617140182
 20
8543.3173629826
 30
0.0
 40
4.278557402504667
100
AcDbArc
 50
60.5429882889
 51
64.2069819652
  0
ARC
  5
11E
330
1F
100
AcDbEntity
  8
0
  6
Continuous
 62
     7
370
    15
100
AcDbCircle
 10
3831.0590358495
 20
8543.3118269852
 30
0.0
 40
4.284707186932573
100
AcDbArc
 50
64.2069483115
 51
67.8674346266
  0
ARC
  5
11F
330
1F
100
AcDbEntity
  8
0
  6
Continuous
 62
     7
370
    15
100
AcDbCircle
 10
3831.0569664295
 20
8543.3067465891
 30
0.0
 40
4.290192887914252
100
AcDbArc
 50
67.8673960217
 51
71.524760791
  0
ARC
  5
120
330
1F
100
AcDbEntity
  8
0
  6
Continuous
 62
     7
370
    15
100
AcDbCircle
 10
3831.0554644252
 20
8543.3022612687
 30
0.0
 40
4.294923015378031
100
AcDbArc
 50
71.5247178707
 51
75.1793963775
  0
ARC
  5
121
330
1F
100
AcDbEntity
  8
0
  6
Continuous
 62
     7
370
    15
100
AcDbCircle
 10
3831.0544645875
 20
8543.2984961884
 30
0.0
 40
4.298818588906515
100
AcDbArc
 50
75.1793498365
 51
78.8318197285
  0
LINE
  5
122
330
1F
100
AcDbEntity
  8
0
  6
Continuous
 62
     7
370
    15
100
AcDbLine
 10
3830.494418199
 20
8547.7908680356
 30
0.0
 11
3831.8871007477
 21
8547.5159071527
 31
0.0
  0
ARC
  5
123
330
1F
100
AcDbEntity
  8
0
  6
Continuous
 62
     7
370
    15
100
AcDbCircle
 10
3831.327260649
 20
8552.0092474738
 30
0.0
 40
4.299807972998356
100
AcDbArc
 50
257.3196866104
 51
258.8316209041
  0
ARC
  5
124
330
1F
100
AcDbEntity
  8
0
  6
Continuous
 62
     7
370
    15
100
AcDbCircle
 10
3831.3269533828
 20
8552.0078830107
 30
0.0
 40
4.298409340764267
100
AcDbArc
 50
255.8074274791
 51
257.3196900411
  0
LINE
  5
125
330
1F
100
AcDbEntity
  8
0
  6
Continuous
 62
     7
370
    15
100
AcDbLine
 10
3828.6235323584
 20
8548.2578424878
 30
0.0
 11
3830.2730619152
 21
8547.8406733043
 31
0.0
  0
ARC
  5
126
330
1F
100
AcDbEntity
  8
0
  6
Continuous
 62
     7
370
    15
100
AcDbCircle
 10
3827.569422796
 20
8544.0897133308
 30
0.0
 40
4.299354249095924
100
AcDbArc
 50
75.8076126108
 51
79.3575458091
  0
ARC
  5
127
330
1F
100
AcDbEntity
  8
0
  6
Continuous
 62
     7
370
    15
100
AcDbCircle
 10
3827.5689056574
 20
8544.086979888
 30
0.0
 40
4.302136178313061
100
AcDbArc
 50
79.3575001018
 51
82.905902538
  0
ARC
  5
128
330
1F
100
AcDbEntity
  8
0
  6
Continuous
 62
     7
370
    15
100
AcDbCircle
 10
3827.5686700095
 20
8544.0851152871
 30
0.0
 40
4.304015607327258
100
AcDbArc
 50
82.9058550512
 51
86.4532242614
  0
ARC
  5
129
330
1F
100
AcDbEntity
  8
0
  6
Continuous
 62
     7
370
    15
100
AcDbCircle
 10
3827.5686077632
 20
8544.084170007
 30
0.0
 40
4.304962927697854
100
AcDbArc
 50
86.4531756984
 51
93.5468731312
  0
ARC
  5
12A
330
1F
100
AcDbEntity
  8
0
  6
Continuous
 62
     7
370
    15
100
AcDbCircle
 10
3827.5685418551
 20
8544.0851150602
 30
0.0
 40
4.304015607325139
100
AcDbArc
 50
93.5467757386
 51
97.0941449488
  0
ARC
  5
12B
330
1F
100
AcDbEntity
  8
0
  6
Continuous
 62
     7
370
    15
100
AcDbCircle
 10
3827.5683062072
 20
8544.086979661
 30
0.0
 40
4.302136178319462
100
AcDbArc
 50
97.094097462
 51
100.6424998982
  0
ARC
  5
12C
330
1F
100
AcDbEntity
  8
0
  6
Continuous
 62
     7
370
    15
100
AcDbCircle
 10
3847.8869871391
 20
8515.4151161936
 30
0.0
 40
40.95971952467954
100
AcDbArc
 50
131.5145914411
 51
132.5560763131
  0
LINE
  5
12D
330
1F
100
AcDbEntity
  8
0
  6
Continuous
 62
     7
370
    15
100
AcDbLine
 10
11052.8924259056
 20
8548.3891328937
 30
0.0
 11
8052.8924259056
 21
8548.3891328937
 31
0.0
  0
LINE
  5
12E
330
1F
100
AcDbEntity
  8
0
  6
Continuous
 62
     7
370
    15
100
AcDbLine
 10
8052.8924259056
 20
8523.3891325212
 30
0.0
 11
11052.8924259056
 21
8523.3891325212
 31
0.0
  0
LINE
  5
12F
330
1F
100
AcDbEntity
  8
0
  6
Continuous
 62
     7
370
    15
100
AcDbLine
 10
11052.8924259056
 20
8535.625381485
 30
0.0
 11
8052.8924259056
 21
8535.625381485
 31
0.0
  0
LINE
  5
130
330
1F
100
AcDbEntity
  8
0
  6
Continuous
 62
     7
370
    15
100
AcDbLine
 10
11052.8924259056
 20
8535.3912822927
 30
0.0
 11
8052.8924259056
 21
8535.3912822927
 31
0.0
  0
LINE
  5
131
330
1F
100
AcDbEntity
  8
0
  6
Continuous
 62
     7
370
    15
100
AcDbLine
 10
8052.8924259056
 20
8535.3912822927
 30
0.0
 11
8052.8924259056
 21
8535.625381485
 31
0.0
  0
LINE
  5
132
330
1F
100
AcDbEntity
  8
0
  6
Continuous
 62
     7
370
    15
100
AcDbLine
 10
11052.8924259056
 20
8535.3912822927
 30
0.0
 11
11052.8924259056
 21
8535.625381485
 31
0.0
  0
LINE
  5
133
330
1F
100
AcDbEntity
  8
0
  6
Continuous
 62
     7
370
    15
100
AcDbLine
 10
11052.8924259056
 20
8535.8592727923
 30
0.0
 11
8052.8924259056
 21
8535.8592727923
 31
0.0
  0
LINE
  5
134
330
1F
100
AcDbEntity
  8
0
  6
Continuous
 62
     7
370
    15
100
AcDbLine
 10
8052.8924259056
 20
8535.625381485
 30
0.0
 11
8052.8924259056
 21
8535.8592727923
 31
0.0
  0
LINE
  5
135
330
1F
100
AcDbEntity
  8
0
  6
Continuous
 62
     7
370
    15
100
AcDbLine
 10
11052.8924259056
 20
8535.625381485
 30
0.0
 11
11052.8924259056
 21
8535.8592727923
 31
0.0
  0
LINE
  5
136
330
1F
100
AcDbEntity
  8
0
  6
Continuous
 62
     7
370
    15
100
AcDbLine
 10
11052.8924259056
 20
8535.1576944255
 30
0.0
 11
8052.8924259056
 21
8535.1576944255
 31
0.0
  0
LINE
  5
137
330
1F
100
AcDbEntity
  8
0
  6
Continuous
 62
     7
370
    15
100
AcDbLine
 10
8052.8924259056
 20
8535.1576944255
 30
0.0
 11
8052.8924259056
 21
8535.3912822927
 31
0.0
  0
LINE
  5
138
330
1F
100
AcDbEntity
  8
0
  6
Continuous
 62
     7
370
    15
100
AcDbLine
 10
11052.8924259056
 20
8535.1576944255
 30
0.0
 11
11052.8924259056
 21
8535.3912822927
 31
0.0
  0
LINE
  5
139
330
1F
100
AcDbEntity
  8
0
  6
Continuous
 62
     7
370
    15
100
AcDbLine
 10
11052.8924259056
 20
8536.0922377319
 30
0.0
 11
8052.8924259056
 21
8536.0922377319
 31
0.0
  0
LINE
  5
13A
330
1F
100
AcDbEntity
  8
0
  6
Continuous
 62
     7
370
    15
100
AcDbLine
 10
8052.8924259056
 20
8535.8592727923
 30
0.0
 11
8052.8924259056
 21
8536.0922377319
 31
0.0
  0
LINE
  5
13B
330
1F
100
AcDbEntity
  8
0
  6
Continuous
 62
     7
370
    15
100
AcDbLine
 10
11052.8924259056
 20
8535.8592727923
 30
0.0
 11
11052.8924259056
 21
8536.0922377319
 31
0.0
  0
LINE
  5
13C
330
1F
100
AcDbEntity
  8
0
  6
Continuous
 62
     7
370
    15
100
AcDbLine
 10
11052.8924259056
 20
8534.9253354386
 30
0.0
 11
8052.8924259056
 21
8534.9253354386
 31
0.0
  0
LINE
  5
13D
330
1F
100
AcDbEntity
  8
0
  6
Continuous
 62
     7
370
    15
100
AcDbLine
 10
8052.8924259056
 20
8534.9253354386
 30
0.0
 11
8052.8924259056
 21
8535.1576944255
 31
0.0
  0
LINE
  5
13E
330
1F
100
AcDbEntity
  8
0
  6
Continuous
 62
     7
370
    15
100
AcDbLine
 10
11052.8924259056
 20
8534.9253354386
 30
0.0
 11
11052.8924259056
 21
8535.1576944255
 31
0.0
  0
LINE
  5
13F
330
1F
100
AcDbEntity
  8
0
  6
Continuous
 62
     7
370
    15
100
AcDbLine
 10
11052.8924259056
 20
8536.3235606371
 30
0.0
 11
8052.8924259056
 21
8536.3235606371
 31
0.0
  0
LINE
  5
140
330
1F
100
AcDbEntity
  8
0
  6
Continuous
 62
     7
370
    15
100
AcDbLine
 10
8052.8924259056
 20
8536.0922377319
 30
0.0
 11
8052.8924259056
 21
8536.3235606371
 31
0.0
  0
LINE
  5
141
330
1F
100
AcDbEntity
  8
0
  6
Continuous
 62
     7
370
    15
100
AcDbLine
 10
11052.8924259056
 20
8536.0922377319
 30
0.0
 11
11052.8924259056
 21
8536.3235606371
 31
0.0
  0
LINE
  5
142
330
1F
100
AcDbEntity
  8
0
  6
Continuous
 62
     7
370
    15
100
AcDbLine
 10
11052.8924259056
 20
8532.9987425963
 30
0.0
 11
8052.8924259056
 21
8532.9987425963
 31
0.0
  0
LINE
  5
143
330
1F
100
AcDbEntity
  8
0
  6
Continuous
 62
     7
370
    15
100
AcDbLine
 10
8052.8924259056
 20
8534.9253354386
 30
0.0
 11
8052.8924259056
 21
8532.9987425963
 31
0.0
  0
LINE
  5
144
330
1F
100
AcDbEntity
  8
0
  6
Continuous
 62
     7
370
    15
100
AcDbLine
 10
11052.8924259056
 20
8534.9253354386
 30
0.0
 11
11052.8924259056
 21
8532.9987425963
 31
0.0
  0
LINE
  5
145
330
1F
100
AcDbEntity
  8
0
  6
Continuous
 62
     7
370
    15
100
AcDbLine
 10
11052.8924259056
 20
8536.5525308904
 30
0.0
 11
8052.8924259056
 21
8536.5525308904
 31
0.0
  0
LINE
  5
146
330
1F
100
AcDbEntity
  8
0
  6
Continuous
 62
     7
370
    15
100
AcDbLine
 10
8052.8924259056
 20
8536.3235606371
 30
0.0
 11
8052.8924259056
 21
8536.5525308904
 31
0.0
  0
LINE
  5
147
330
1F
100
AcDbEntity
  8
0
  6
Continuous
 62
     7
370
    15
100
AcDbLine
 10
11052.8924259056
 20
8536.3235606371
 30
0.0
 11
11052.8924259056
 21
8536.5525308904
 31
0.0
  0
LINE
  5
148
330
1F
100
AcDbEntity
  8
0
  6
Continuous
 62
     7
370
    15
100
AcDbLine
 10
11052.8924259056
 20
8536.778445067
 30
0.0
 11
8052.8924259056
 21
8536.778445067
 31
0.0
  0
LINE
  5
149
330
1F
100
AcDbEntity
  8
0
  6
Continuous
 62
     7
370
    15
100
AcDbLine
 10
8052.8924259056
 20
8536.5525308904
 30
0.0
 11
8052.8924259056
 21
8536.778445067
 31
0.0
  0
LINE
  5
14A
330
1F
100
AcDbEntity
  8
0
  6
Continuous
 62
     7
370
    15
100
AcDbLine
 10
11052.8924259056
 20
8536.5525308904
 30
0.0
 11
11052.8924259056
 21
8536.778445067
 31
0.0
  0
LINE
  5
14B
330
1F
100
AcDbEntity
  8
0
  6
Continuous
 62
     7
370
    15
100
AcDbLine
 10
11052.8924259056
 20
8537.6538428851
 30
0.0
 11
8052.8924259056
 21
8537.6538428851
 31
0.0
  0
LINE
  5
14C
330
1F
100
AcDbEntity
  8
0
  6
Continuous
 62
     7
370
    15
100
AcDbLine
 10
8052.8924259056
 20
8537.6538428851
 30
0.0
 11
8052.8924259056
 21
8536.778445067
 31
0.0
  0
LINE
  5
14D
330
1F
100
AcDbEntity
  8
0
  6
Continuous
 62
     7
370
    15
100
AcDbLine
 10
11052.8924259056
 20
8537.6538428851
 30
0.0
 11
11052.8924259056
 21
8536.778445067
 31
0.0
  0
LINE
  5
14E
330
1F
100
AcDbEntity
  8
0
  6
Continuous
 62
     7
370
    15
100
AcDbLine
 10
11052.8924259056
 20
8532.7902271553
 30
0.0
 11
8052.8924259056
 21
8532.7902271553
 31
0.0
  0
LINE
  5
14F
330
1F
100
AcDbEntity
  8
0
  6
Continuous
 62
     7
370
    15
100
AcDbLine
 10
8052.8924259056
 20
8532.7902271553
 30
0.0
 11
8052.8924259056
 21
8532.9987425963
 31
0.0
  0
LINE
  5
150
330
1F
100
AcDbEntity
  8
0
  6
Continuous
 62
     7
370
    15
100
AcDbLine
 10
11052.8924259056
 20
8532.7902271553
 30
0.0
 11
11052.8924259056
 21
8532.9987425963
 31
0.0
  0
LINE
  5
151
330
1F
100
AcDbEntity
  8
0
  6
Continuous
 62
     7
370
    15
100
AcDbLine
 10
11052.8924259056
 20
8532.5838248852
 30
0.0
 11
8052.8924259056
 21
8532.5838248852
 31
0.0
  0
LINE
  5
152
330
1F
100
AcDbEntity
  8
0
  6
Continuous
 62
     7
370
    15
100
AcDbLine
 10
8052.8924259056
 20
8532.5838248852
 30
0.0
 11
8052.8924259056
 21
8532.7902271553
 31
0.0
  0
LINE
  5
153
330
1F
100
AcDbEntity
  8
0
  6
Continuous
 62
     7
370
    15
100
AcDbLine
 10
11052.8924259056
 20
8532.5838248852
 30
0.0
 11
11052.8924259056
 21
8532.7902271553
 31
0.0
  0
LINE
  5
154
330
1F
100
AcDbEntity
  8
0
  6
Continuous
 62
     7
370
    15
100
AcDbLine
 10
11052.8924259056
 20
8532.3800549983
 30
0.0
 11
8052.8924259056
 21
8532.3800549983
 31
0.0
  0
LINE
  5
155
330
1F
100
AcDbEntity
  8
0
  6
Continuous
 62
     7
370
    15
100
AcDbLine
 10
8052.8924259056
 20
8532.3800549983
 30
0.0
 11
8052.8924259056
 21
8532.5838248852
 31
0.0
  0
LINE
  5
156
330
1F
100
AcDbEntity
  8
0
  6
Continuous
 62
     7
370
    15
100
AcDbLine
 10
11052.8924259056
 20
8532.3800549983
 30
0.0
 11
11052.8924259056
 21
8532.5838248852
 31
0.0
  0
LINE
  5
157
330
1F
100
AcDbEntity
  8
0
  6
Continuous
 62
     7
370
    15
100
AcDbLine
 10
11052.8924259056
 20
8538.5367749865
 30
0.0
 11
8052.8924259056
 21
8538.5367749865
 31
0.0
  0
LINE
  5
158
330
1F
100
AcDbEntity
  8
0
  6
Continuous
 62
     7
370
    15
100
AcDbLine
 10
8052.8924259056
 20
8538.5367749865
 30
0.0
 11
8052.8924259056
 21
8537.6538428851
 31
0.0
  0
LINE
  5
159
330
1F
100
AcDbEntity
  8
0
  6
Continuous
 62
     7
370
    15
100
AcDbLine
 10
11052.8924259056
 20
8538.5367749865
 30
0.0
 11
11052.8924259056
 21
8537.6538428851
 31
0.0
  0
LINE
  5
15A
330
1F
100
AcDbEntity
  8
0
  6
Continuous
 62
     7
370
    15
100
AcDbLine
 10
11052.8924259056
 20
8532.1794297221
 30
0.0
 11
8052.8924259056
 21
8532.1794297221
 31
0.0
  0
LINE
  5
15B
330
1F
100
AcDbEntity
  8
0
  6
Continuous
 62
     7
370
    15
100
AcDbLine
 10
8052.8924259056
 20
8532.1794297221
 30
0.0
 11
8052.8924259056
 21
8532.3800549983
 31
0.0
  0
LINE
  5
15C
330
1F
100
AcDbEntity
  8
0
  6
Continuous
 62
     7
370
    15
100
AcDbLine
 10
11052.8924259056
 20
8532.1794297221
 30
0.0
 11
11052.8924259056
 21
8532.3800549983
 31
0.0
  0
LINE
  5
15D
330
1F
100
AcDbEntity
  8
0
  6
Continuous
 62
     7
370
    15
100
AcDbLine
 10
11052.8924259056
 20
8531.9824529021
 30
0.0
 11
8052.8924259056
 21
8531.9824529021
 31
0.0
  0
LINE
  5
15E
330
1F
100
AcDbEntity
  8
0
  6
Continuous
 62
     7
370
    15
100
AcDbLine
 10
8052.8924259056
 20
8531.9824529021
 30
0.0
 11
8052.8924259056
 21
8532.1794297221
 31
0.0
  0
LINE
  5
15F
330
1F
100
AcDbEntity
  8
0
  6
Continuous
 62
     7
370
    15
100
AcDbLine
 10
11052.8924259056
 20
8531.9824529021
 30
0.0
 11
11052.8924259056
 21
8532.1794297221
 31
0.0
  0
LINE
  5
160
330
1F
100
AcDbEntity
  8
0
  6
Continuous
 62
     7
370
    15
100
AcDbLine
 10
11052.8924259056
 20
8531.7896197691
 30
0.0
 11
8052.8924259056
 21
8531.7896197691
 31
0.0
  0
LINE
  5
161
330
1F
100
AcDbEntity
  8
0
  6
Continuous
 62
     7
370
    15
100
AcDbLine
 10
8052.8924259056
 20
8531.7896197691
 30
0.0
 11
8052.8924259056
 21
8531.9824529021
 31
0.0
  0
LINE
  5
162
330
1F
100
AcDbEntity
  8
0
  6
Continuous
 62
     7
370
    15
100
AcDbLine
 10
11052.8924259056
 20
8531.7896197691
 30
0.0
 11
11052.8924259056
 21
8531.9824529021
 31
0.0
  0
LINE
  5
163
330
1F
100
AcDbEntity
  8
0
  6
Continuous
 62
     7
370
    15
100
AcDbLine
 10
11052.8924259056
 20
8539.4263335644
 30
0.0
 11
8052.8924259056
 21
8539.4263335644
 31
0.0
  0
LINE
  5
164
330
1F
100
AcDbEntity
  8
0
  6
Continuous
 62
     7
370
    15
100
AcDbLine
 10
8052.8924259056
 20
8539.4263335644
 30
0.0
 11
8052.8924259056
 21
8538.5367749865
 31
0.0
  0
LINE
  5
165
330
1F
100
AcDbEntity
  8
0
  6
Continuous
 62
     7
370
    15
100
AcDbLine
 10
11052.8924259056
 20
8539.4263335644
 30
0.0
 11
11052.8924259056
 21
8538.5367749865
 31
0.0
  0
LINE
  5
166
330
1F
100
AcDbEntity
  8
0
  6
Continuous
 62
     7
370
    15
100
AcDbLine
 10
11052.8924259056
 20
8531.6014153092
 30
0.0
 11
8052.8924259056
 21
8531.6014153092
 31
0.0
  0
LINE
  5
167
330
1F
100
AcDbEntity
  8
0
  6
Continuous
 62
     7
370
    15
100
AcDbLine
 10
8052.8924259056
 20
8531.6014153092
 30
0.0
 11
8052.8924259056
 21
8531.7896197691
 31
0.0
  0
LINE
  5
168
330
1F
100
AcDbEntity
  8
0
  6
Continuous
 62
     7
370
    15
100
AcDbLine
 10
11052.8924259056
 20
8531.6014153092
 30
0.0
 11
11052.8924259056
 21
8531.7896197691
 31
0.0
  0
LINE
  5
169
330
1F
100
AcDbEntity
  8
0
  6
Continuous
 62
     7
370
    15
100
AcDbLine
 10
11052.8924259056
 20
8531.4183121688
 30
0.0
 11
8052.8924259056
 21
8531.4183121688
 31
0.0
  0
LINE
  5
16A
330
1F
100
AcDbEntity
  8
0
  6
Continuous
 62
     7
370
    15
100
AcDbLine
 10
8052.8924259056
 20
8531.4183121688
 30
0.0
 11
8052.8924259056
 21
8531.6014153092
 31
0.0
  0
LINE
  5
16B
330
1F
100
AcDbEntity
  8
0
  6
Continuous
 62
     7
370
    15
100
AcDbLine
 10
11052.8924259056
 20
8531.4183121688
 30
0.0
 11
11052.8924259056
 21
8531.6014153092
 31
0.0
  0
LINE
  5
16C
330
1F
100
AcDbEntity
  8
0
  6
Continuous
 62
     7
370
    15
100
AcDbLine
 10
11052.8924259056
 20
8540.3216037109
 30
0.0
 11
8052.8924259056
 21
8540.3216037109
 31
0.0
  0
LINE
  5
16D
330
1F
100
AcDbEntity
  8
0
  6
Continuous
 62
     7
370
    15
100
AcDbLine
 10
8052.8924259056
 20
8540.3216037109
 30
0.0
 11
8052.8924259056
 21
8539.4263335644
 31
0.0
  0
LINE
  5
16E
330
1F
100
AcDbEntity
  8
0
  6
Continuous
 62
     7
370
    15
100
AcDbLine
 10
11052.8924259056
 20
8540.3216037109
 30
0.0
 11
11052.8924259056
 21
8539.4263335644
 31
0.0
  0
LINE
  5
16F
330
1F
100
AcDbEntity
  8
0
  6
Continuous
 62
     7
370
    15
100
AcDbLine
 10
11052.8924259056
 20
8527.6867494128
 30
0.0
 11
8052.8924259056
 21
8527.6867494128
 31
0.0
  0
LINE
  5
170
330
1F
100
AcDbEntity
  8
0
  6
Continuous
 62
     7
370
    15
100
AcDbLine
 10
8052.8924259056
 20
8531.4183121688
 30
0.0
 11
8052.8924259056
 21
8527.6867494128
 31
0.0
  0
LINE
  5
171
330
1F
100
AcDbEntity
  8
0
  6
Continuous
 62
     7
370
    15
100
AcDbLine
 10
11052.8924259056
 20
8531.4183121688
 30
0.0
 11
11052.8924259056
 21
8527.6867494128
 31
0.0
  0
LINE
  5
172
330
1F
100
AcDbEntity
  8
0
  6
Continuous
 62
     7
370
    15
100
AcDbLine
 10
11052.8924259056
 20
8540.6058196119
 30
0.0
 11
8052.8924259056
 21
8540.6058196119
 31
0.0
  0
LINE
  5
173
330
1F
100
AcDbEntity
  8
0
  6
Continuous
 62
     7
370
    15
100
AcDbLine
 10
8052.8924259056
 20
8540.3216037109
 30
0.0
 11
8052.8924259056
 21
8540.6058196119
 31
0.0
  0
LINE
  5
174
330
1F
100
AcDbEntity
  8
0
  6
Continuous
 62
     7
370
    15
100
AcDbLine
 10
11052.8924259056
 20
8540.3216037109
 30
0.0
 11
11052.8924259056
 21
8540.6058196119
 31
0.0
  0
LINE
  5
175
330
1F
100
AcDbEntity
  8
0
  6
Continuous
 62
     7
370
    15
100
AcDbLine
 10
11052.8924259056
 20
8540.8854291915
 30
0.0
 11
8052.8924259056
 21
8540.8854291915
 31
0.0
  0
LINE
  5
176
330
1F
100
AcDbEntity
  8
0
  6
Continuous
 62
     7
370
    15
100
AcDbLine
 10
8052.8924259056
 20
8540.6058196119
 30
0.0
 11
8052.8924259056
 21
8540.8854291915
 31
0.0
  0
LINE
  5
177
330
1F
100
AcDbEntity
  8
0
  6
Continuous
 62
     7
370
    15
100
AcDbLine
 10
11052.8924259056
 20
8540.6058196119
 30
0.0
 11
11052.8924259056
 21
8540.8854291915
 31
0.0
  0
LINE
  5
178
330
1F
100
AcDbEntity
  8
0
  6
Continuous
 62
     7
370
    15
100
AcDbLine
 10
11052.8924259056
 20
8541.1591141625
 30
0.0
 11
8052.8924259056
 21
8541.1591141625
 31
0.0
  0
LINE
  5
179
330
1F
100
AcDbEntity
  8
0
  6
Continuous
 62
     7
370
    15
100
AcDbLine
 10
8052.8924259056
 20
8540.8854291915
 30
0.0
 11
8052.8924259056
 21
8541.1591141625
 31
0.0
  0
LINE
  5
17A
330
1F
100
AcDbEntity
  8
0
  6
Continuous
 62
     7
370
    15
100
AcDbLine
 10
11052.8924259056
 20
8540.8854291915
 30
0.0
 11
11052.8924259056
 21
8541.1591141625
 31
0.0
  0
LINE
  5
17B
330
1F
100
AcDbEntity
  8
0
  6
Continuous
 62
     7
370
    15
100
AcDbLine
 10
11052.8924259056
 20
8541.4255855746
 30
0.0
 11
8052.8924259056
 21
8541.4255855746
 31
0.0
  0
LINE
  5
17C
330
1F
100
AcDbEntity
  8
0
  6
Continuous
 62
     7
370
    15
100
AcDbLine
 10
8052.8924259056
 20
8541.1591141625
 30
0.0
 11
8052.8924259056
 21
8541.4255855746
 31
0.0
  0
LINE
  5
17D
330
1F
100
AcDbEntity
  8
0
  6
Continuous
 62
     7
370
    15
100
AcDbLine
 10
11052.8924259056
 20
8541.1591141625
 30
0.0
 11
11052.8924259056
 21
8541.4255855746
 31
0.0
  0
LINE
  5
17E
330
1F
100
AcDbEntity
  8
0
  6
Continuous
 62
     7
370
    15
100
AcDbLine
 10
11052.8924259056
 20
8541.6835870735
 30
0.0
 11
8052.8924259056
 21
8541.6835870735
 31
0.0
  0
LINE
  5
17F
330
1F
100
AcDbEntity
  8
0
  6
Continuous
 62
     7
370
    15
100
AcDbLine
 10
8052.8924259056
 20
8541.4255855746
 30
0.0
 11
8052.8924259056
 21
8541.6835870735
 31
0.0
  0
LINE
  5
180
330
1F
100
AcDbEntity
  8
0
  6
Continuous
 62
     7
370
    15
100
AcDbLine
 10
11052.8924259056
 20
8541.4255855746
 30
0.0
 11
11052.8924259056
 21
8541.6835870735
 31
0.0
  0
LINE
  5
181
330
1F
100
AcDbEntity
  8
0
  6
Continuous
 62
     7
370
    15
100
AcDbLine
 10
11052.8924259056
 20
8541.9319037489
 30
0.0
 11
8052.8924259056
 21
8541.9319037489
 31
0.0
  0
LINE
  5
182
330
1F
100
AcDbEntity
  8
0
  6
Continuous
 62
     7
370
    15
100
AcDbLine
 10
8052.8924259056
 20
8541.6835870735
 30
0.0
 11
8052.8924259056
 21
8541.9319037489
 31
0.0
  0
LINE
  5
183
330
1F
100
AcDbEntity
  8
0
  6
Continuous
 62
     7
370
    15
100
AcDbLine
 10
11052.8924259056
 20
8541.6835870735
 30
0.0
 11
11052.8924259056
 21
8541.9319037489
 31
0.0
  0
LINE
  5
184
330
1F
100
AcDbEntity
  8
0
  6
Continuous
 62
     7
370
    15
100
AcDbLine
 10
11052.8924259056
 20
8542.169365394
 30
0.0
 11
8052.8924259056
 21
8542.169365394
 31
0.0
  0
LINE
  5
185
330
1F
100
AcDbEntity
  8
0
  6
Continuous
 62
     7
370
    15
100
AcDbLine
 10
8052.8924259056
 20
8541.9319037489
 30
0.0
 11
8052.8924259056
 21
8542.169365394
 31
0.0
  0
LINE
  5
186
330
1F
100
AcDbEntity
  8
0
  6
Continuous
 62
     7
370
    15
100
AcDbLine
 10
11052.8924259056
 20
8541.9319037489
 30
0.0
 11
11052.8924259056
 21
8542.169365394
 31
0.0
  0
LINE
  5
187
330
1F
100
AcDbEntity
  8
0
  6
Continuous
 62
     7
370
    15
100
AcDbLine
 10
11052.8924259056
 20
8542.3939854979
 30
0.0
 11
8052.8924259056
 21
8542.3939854979
 31
0.0
  0
LINE
  5
188
330
1F
100
AcDbEntity
  8
0
  6
Continuous
 62
     7
370
    15
100
AcDbLine
 10
8052.8924259056
 20
8542.169365394
 30
0.0
 11
8052.8924259056
 21
8542.3939854979
 31
0.0
  0
LINE
  5
189
330
1F
100
AcDbEntity
  8
0
  6
Continuous
 62
     7
370
    15
100
AcDbLine
 10
11052.8924259056
 20
8542.169365394
 30
0.0
 11
11052.8924259056
 21
8542.3939854979
 31
0.0
  0
LINE
  5
18A
330
1F
100
AcDbEntity
  8
0
  6
Continuous
 62
     7
370
    15
100
AcDbLine
 10
11052.8924259056
 20
8542.9492227874
 30
0.0
 11
8052.8924259056
 21
8542.9492227874
 31
0.0
  0
LINE
  5
18B
330
1F
100
AcDbEntity
  8
0
  6
Continuous
 62
     7
370
    15
100
AcDbLine
 10
8052.8924259056
 20
8542.3939854979
 30
0.0
 11
8052.8924259056
 21
8542.9492227874
 31
0.0
  0
LINE
  5
18C
330
1F
100
AcDbEntity
  8
0
  6
Continuous
 62
     7
370
    15
100
AcDbLine
 10
11052.8924259056
 20
8542.3939854979
 30
0.0
 11
11052.8924259056
 21
8542.9492227874
 31
0.0
  0
LINE
  5
18D
330
1F
100
AcDbEntity
  8
0
  6
Continuous
 62
     7
370
    15
100
AcDbLine
 10
11052.8924259056
 20
8543.4954504623
 30
0.0
 11
8052.8924259056
 21
8543.4954504623
 31
0.0
  0
LINE
  5
18E
330
1F
100
AcDbEntity
  8
0
  6
Continuous
 62
     7
370
    15
100
AcDbLine
 10
8052.8924259056
 20
8542.9492227874
 30
0.0
 11
8052.8924259056
 21
8543.4954504623
 31
0.0
  0
LINE
  5
18F
330
1F
100
AcDbEntity
  8
0
  6
Continuous
 62
     7
370
    15
100
AcDbLine
 10
11052.8924259056
 20
8542.9492227874
 30
0.0
 11
11052.8924259056
 21
8543.4954504623
 31
0.0
  0
LINE
  5
190
330
1F
100
AcDbEntity
  8
0
  6
Continuous
 62
     7
370
    15
100
AcDbLine
 10
11052.8924259056
 20
8544.0324878461
 30
0.0
 11
8052.8924259056
 21
8544.0324878461
 31
0.0
  0
LINE
  5
191
330
1F
100
AcDbEntity
  8
0
  6
Continuous
 62
     7
370
    15
100
AcDbLine
 10
8052.8924259056
 20
8543.4954504623
 30
0.0
 11
8052.8924259056
 21
8544.0324878461
 31
0.0
  0
LINE
  5
192
330
1F
100
AcDbEntity
  8
0
  6
Continuous
 62
     7
370
    15
100
AcDbLine
 10
11052.8924259056
 20
8543.4954504623
 30
0.0
 11
11052.8924259056
 21
8544.0324878461
 31
0.0
  0
LINE
  5
193
330
1F
100
AcDbEntity
  8
0
  6
Continuous
 62
     7
370
    15
100
AcDbLine
 10
11052.8924259056
 20
8527.4716176233
 30
0.0
 11
8052.8924259056
 21
8527.4716176233
 31
0.0
  0
LINE
  5
194
330
1F
100
AcDbEntity
  8
0
  6
Continuous
 62
     7
370
    15
100
AcDbLine
 10
8052.8924259056
 20
8527.4716176233
 30
0.0
 11
8052.8924259056
 21
8527.6867494128
 31
0.0
  0
LINE
  5
195
330
1F
100
AcDbEntity
  8
0
  6
Continuous
 62
     7
370
    15
100
AcDbLine
 10
11052.8924259056
 20
8527.4716176233
 30
0.0
 11
11052.8924259056
 21
8527.6867494128
 31
0.0
  0
LINE
  5
196
330
1F
100
AcDbEntity
  8
0
  6
Continuous
 62
     7
370
    15
100
AcDbLine
 10
11052.8924259056
 20
8527.2655103496
 30
0.0
 11
8052.8924259056
 21
8527.2655103496
 31
0.0
  0
LINE
  5
197
330
1F
100
AcDbEntity
  8
0
  6
Continuous
 62
     7
370
    15
100
AcDbLine
 10
8052.8924259056
 20
8527.2655103496
 30
0.0
 11
8052.8924259056
 21
8527.4716176233
 31
0.0
  0
LINE
  5
198
330
1F
100
AcDbEntity
  8
0
  6
Continuous
 62
     7
370
    15
100
AcDbLine
 10
11052.8924259056
 20
8527.2655103496
 30
0.0
 11
11052.8924259056
 21
8527.4716176233
 31
0.0
  0
LINE
  5
199
330
1F
100
AcDbEntity
  8
0
  6
Continuous
 62
     7
370
    15
100
AcDbLine
 10
11052.8924259056
 20
8544.5601556591
 30
0.0
 11
8052.8924259056
 21
8544.5601556591
 31
0.0
  0
LINE
  5
19A
330
1F
100
AcDbEntity
  8
0
  6
Continuous
 62
     7
370
    15
100
AcDbLine
 10
8052.8924259056
 20
8544.0324878461
 30
0.0
 11
8052.8924259056
 21
8544.5601556591
 31
0.0
  0
LINE
  5
19B
330
1F
100
AcDbEntity
  8
0
  6
Continuous
 62
     7
370
    15
100
AcDbLine
 10
11052.8924259056
 20
8544.0324878461
 30
0.0
 11
11052.8924259056
 21
8544.5601556591
 31
0.0
  0
LINE
  5
19C
330
1F
100
AcDbEntity
  8
0
  6
Continuous
 62
     7
370
    15
100
AcDbLine
 10
11052.8924259056
 20
8527.0691922075
 30
0.0
 11
8052.8924259056
 21
8527.0691922075
 31
0.0
  0
LINE
  5
19D
330
1F
100
AcDbEntity
  8
0
  6
Continuous
 62
     7
370
    15
100
AcDbLine
 10
8052.8924259056
 20
8527.0691922075
 30
0.0
 11
8052.8924259056
 21
8527.2655103496
 31
0.0
  0
LINE
  5
19E
330
1F
100
AcDbEntity
  8
0
  6
Continuous
 62
     7
370
    15
100
AcDbLine
 10
11052.8924259056
 20
8527.0691922075
 30
0.0
 11
11052.8924259056
 21
8527.2655103496
 31
0.0
  0
LINE
  5
19F
330
1F
100
AcDbEntity
  8
0
  6
Continuous
 62
     7
370
    15
100
AcDbLine
 10
11052.8924259056
 20
8526.8833924226
 30
0.0
 11
8052.8924259056
 21
8526.8833924226
 31
0.0
  0
LINE
  5
1A0
330
1F
100
AcDbEntity
  8
0
  6
Continuous
 62
     7
370
    15
100
AcDbLine
 10
8052.8924259056
 20
8526.8833924226
 30
0.0
 11
8052.8924259056
 21
8527.0691922075
 31
0.0
  0
LINE
  5
1A1
330
1F
100
AcDbEntity
  8
0
  6
Continuous
 62
     7
370
    15
100
AcDbLine
 10
11052.8924259056
 20
8526.8833924226
 30
0.0
 11
11052.8924259056
 21
8527.0691922075
 31
0.0
  0
LINE
  5
1A2
330
1F
100
AcDbEntity
  8
0
  6
Continuous
 62
     7
370
    15
100
AcDbLine
 10
11052.8924259056
 20
8526.7088038988
 30
0.0
 11
8052.8924259056
 21
8526.7088038988
 31
0.0
  0
LINE
  5
1A3
330
1F
100
AcDbEntity
  8
0
  6
Continuous
 62
     7
370
    15
100
AcDbLine
 10
8052.8924259056
 20
8526.7088038988
 30
0.0
 11
8052.8924259056
 21
8526.8833924226
 31
0.0
  0
LINE
  5
1A4
330
1F
100
AcDbEntity
  8
0
  6
Continuous
 62
     7
370
    15
100
AcDbLine
 10
11052.8924259056
 20
8526.7088038988
 30
0.0
 11
11052.8924259056
 21
8526.8833924226
 31
0.0
  0
LINE
  5
1A5
330
1F
100
AcDbEntity
  8
0
  6
Continuous
 62
     7
370
    15
100
AcDbLine
 10
11052.8924259056
 20
8545.078281141
 30
0.0
 11
8052.8924259056
 21
8545.078281141
 31
0.0
  0
LINE
  5
1A6
330
1F
100
AcDbEntity
  8
0
  6
Continuous
 62
     7
370
    15
100
AcDbLine
 10
8052.8924259056
 20
8544.5601556591
 30
0.0
 11
8052.8924259056
 21
8545.078281141
 31
0.0
  0
LINE
  5
1A7
330
1F
100
AcDbEntity
  8
0
  6
Continuous
 62
     7
370
    15
100
AcDbLine
 10
11052.8924259056
 20
8544.5601556591
 30
0.0
 11
11052.8924259056
 21
8545.078281141
 31
0.0
  0
LINE
  5
1A8
330
1F
100
AcDbEntity
  8
0
  6
Continuous
 62
     7
370
    15
100
AcDbLine
 10
11052.8924259056
 20
8526.546072974
 30
0.0
 11
8052.8924259056
 21
8526.546072974
 31
0.0
  0
LINE
  5
1A9
330
1F
100
AcDbEntity
  8
0
  6
Continuous
 62
     7
370
    15
100
AcDbLine
 10
8052.8924259056
 20
8526.546072974
 30
0.0
 11
8052.8924259056
 21
8526.7088038988
 31
0.0
  0
LINE
  5
1AA
330
1F
100
AcDbEntity
  8
0
  6
Continuous
 62
     7
370
    15
100
AcDbLine
 10
11052.8924259056
 20
8526.546072974
 30
0.0
 11
11052.8924259056
 21
8526.7088038988
 31
0.0
  0
LINE
  5
1AB
330
1F
100
AcDbEntity
  8
0
  6
Continuous
 62
     7
370
    15
100
AcDbLine
 10
11052.8924259056
 20
8526.3958068705
 30
0.0
 11
8052.8924259056
 21
8526.3958068705
 31
0.0
  0
LINE
  5
1AC
330
1F
100
AcDbEntity
  8
0
  6
Continuous
 62
     7
370
    15
100
AcDbLine
 10
8052.8924259056
 20
8526.3958068705
 30
0.0
 11
8052.8924259056
 21
8526.546072974
 31
0.0
  0
LINE
  5
1AD
330
1F
100
AcDbEntity
  8
0
  6
Continuous
 62
     7
370
    15
100
AcDbLine
 10
11052.8924259056
 20
8526.3958068705
 30
0.0
 11
11052.8924259056
 21
8526.546072974
 31
0.0
  0
LINE
  5
1AE
330
1F
100
AcDbEntity
  8
0
  6
Continuous
 62
     7
370
    15
100
AcDbLine
 10
11052.8924259056
 20
8526.258561588
 30
0.0
 11
8052.8924259056
 21
8526.258561588
 31
0.0
  0
LINE
  5
1AF
330
1F
100
AcDbEntity
  8
0
  6
Continuous
 62
     7
370
    15
100
AcDbLine
 10
8052.8924259056
 20
8526.258561588
 30
0.0
 11
8052.8924259056
 21
8526.3958068705
 31
0.0
  0
LINE
  5
1B0
330
1F
100
AcDbEntity
  8
0
  6
Continuous
 62
     7
370
    15
100
AcDbLine
 10
11052.8924259056
 20
8526.258561588
 30
0.0
 11
11052.8924259056
 21
8526.3958068705
 31
0.0
  0
LINE
  5
1B1
330
1F
100
AcDbEntity
  8
0
  6
Continuous
 62
     7
370
    15
100
AcDbLine
 10
11052.8924259056
 20
8545.5866919971
 30
0.0
 11
8052.8924259056
 21
8545.5866919971
 31
0.0
  0
LINE
  5
1B2
330
1F
100
AcDbEntity
  8
0
  6
Continuous
 62
     7
370
    15
100
AcDbLine
 10
8052.8924259056
 20
8545.078281141
 30
0.0
 11
8052.8924259056
 21
8545.5866919971
 31
0.0
  0
LINE
  5
1B3
330
1F
100
AcDbEntity
  8
0
  6
Continuous
 62
     7
370
    15
100
AcDbLine
 10
11052.8924259056
 20
8545.078281141
 30
0.0
 11
11052.8924259056
 21
8545.5866919971
 31
0.0
  0
LINE
  5
1B4
330
1F
100
AcDbEntity
  8
0
  6
Continuous
 62
     7
370
    15
100
AcDbLine
 10
11052.8924259056
 20
8524.6309645615
 30
0.0
 11
8052.8924259056
 21
8524.6309645615
 31
0.0
  0
LINE
  5
1B5
330
1F
100
AcDbEntity
  8
0
  6
Continuous
 62
     7
370
    15
100
AcDbLine
 10
8052.8924259056
 20
8526.258561588
 30
0.0
 11
8052.8924259056
 21
8524.6309645615
 31
0.0
  0
LINE
  5
1B6
330
1F
100
AcDbEntity
  8
0
  6
Continuous
 62
     7
370
    15
100
AcDbLine
 10
11052.8924259056
 20
8526.258561588
 30
0.0
 11
11052.8924259056
 21
8524.6309645615
 31
0.0
  0
LINE
  5
1B7
330
1F
100
AcDbEntity
  8
0
  6
Continuous
 62
     7
370
    15
100
AcDbLine
 10
11052.8924259056
 20
8546.0852205894
 30
0.0
 11
8052.8924259056
 21
8546.0852205894
 31
0.0
  0
LINE
  5
1B8
330
1F
100
AcDbEntity
  8
0
  6
Continuous
 62
     7
370
    15
100
AcDbLine
 10
8052.8924259056
 20
8545.5866919971
 30
0.0
 11
8052.8924259056
 21
8546.0852205894
 31
0.0
  0
LINE
  5
1B9
330
1F
100
AcDbEntity
  8
0
  6
Continuous
 62
     7
370
    15
100
AcDbLine
 10
11052.8924259056
 20
8545.5866919971
 30
0.0
 11
11052.8924259056
 21
8546.0852205894
 31
0.0
  0
LINE
  5
1BA
330
1F
100
AcDbEntity
  8
0
  6
Continuous
 62
     7
370
    15
100
AcDbLine
 10
11052.8924259056
 20
8546.5737002111
 30
0.0
 11
8052.8924259056
 21
8546.5737002111
 31
0.0
  0
LINE
  5
1BB
330
1F
100
AcDbEntity
  8
0
  6
Continuous
 62
     7
370
    15
100
AcDbLine
 10
8052.8924259056
 20
8546.0852205894
 30
0.0
 11
8052.8924259056
 21
8546.5737002111
 31
0.0
  0
LINE
  5
1BC
330
1F
100
AcDbEntity
  8
0
  6
Continuous
 62
     7
370
    15
100
AcDbLine
 10
11052.8924259056
 20
8546.0852205894
 30
0.0
 11
11052.8924259056
 21
8546.5737002111
 31
0.0
  0
LINE
  5
1BD
330
1F
100
AcDbEntity
  8
0
  6
Continuous
 62
     7
370
    15
100
AcDbLine
 10
11052.8924259056
 20
8546.74421513
 30
0.0
 11
8052.8924259056
 21
8546.74421513
 31
0.0
  0
LINE
  5
1BE
330
1F
100
AcDbEntity
  8
0
  6
Continuous
 62
     7
370
    15
100
AcDbLine
 10
8052.8924259056
 20
8546.5737002111
 30
0.0
 11
8052.8924259056
 21
8546.74421513
 31
0.0
  0
LINE
  5
1BF
330
1F
100
AcDbEntity
  8
0
  6
Continuous
 62
     7
370
    15
100
AcDbLine
 10
11052.8924259056
 20
8546.5737002111
 30
0.0
 11
11052.8924259056
 21
8546.74421513
 31
0.0
  0
LINE
  5
1C0
330
1F
100
AcDbEntity
  8
0
  6
Continuous
 62
     7
370
    15
100
AcDbLine
 10
11052.8924259056
 20
8546.9008002571
 30
0.0
 11
8052.8924259056
 21
8546.9008002571
 31
0.0
  0
LINE
  5
1C1
330
1F
100
AcDbEntity
  8
0
  6
Continuous
 62
     7
370
    15
100
AcDbLine
 10
8052.8924259056
 20
8546.74421513
 30
0.0
 11
8052.8924259056
 21
8546.9008002571
 31
0.0
  0
LINE
  5
1C2
330
1F
100
AcDbEntity
  8
0
  6
Continuous
 62
     7
370
    15
100
AcDbLine
 10
11052.8924259056
 20
8546.74421513
 30
0.0
 11
11052.8924259056
 21
8546.9008002571
 31
0.0
  0
LINE
  5
1C3
330
1F
100
AcDbEntity
  8
0
  6
Continuous
 62
     7
370
    15
100
AcDbLine
 10
11052.8924259056
 20
8547.0428092546
 30
0.0
 11
8052.8924259056
 21
8547.0428092546
 31
0.0
  0
LINE
  5
1C4
330
1F
100
AcDbEntity
  8
0
  6
Continuous
 62
     7
370
    15
100
AcDbLine
 10
8052.8924259056
 20
8546.9008002571
 30
0.0
 11
8052.8924259056
 21
8547.0428092546
 31
0.0
  0
LINE
  5
1C5
330
1F
100
AcDbEntity
  8
0
  6
Continuous
 62
     7
370
    15
100
AcDbLine
 10
11052.8924259056
 20
8546.9008002571
 30
0.0
 11
11052.8924259056
 21
8547.0428092546
 31
0.0
  0
LINE
  5
1C6
330
1F
100
AcDbEntity
  8
0
  6
Continuous
 62
     7
370
    15
100
AcDbLine
 10
11052.8924259056
 20
8547.1696553893
 30
0.0
 11
8052.8924259056
 21
8547.1696553893
 31
0.0
  0
LINE
  5
1C7
330
1F
100
AcDbEntity
  8
0
  6
Continuous
 62
     7
370
    15
100
AcDbLine
 10
8052.8924259056
 20
8547.0428092546
 30
0.0
 11
8052.8924259056
 21
8547.1696553893
 31
0.0
  0
LINE
  5
1C8
330
1F
100
AcDbEntity
  8
0
  6
Continuous
 62
     7
370
    15
100
AcDbLine
 10
11052.8924259056
 20
8547.0428092546
 30
0.0
 11
11052.8924259056
 21
8547.1696553893
 31
0.0
  0
LINE
  5
1C9
330
1F
100
AcDbEntity
  8
0
  6
Continuous
 62
     7
370
    15
100
AcDbLine
 10
11052.8924259056
 20
8547.2808143265
 30
0.0
 11
8052.8924259056
 21
8547.2808143265
 31
0.0
  0
LINE
  5
1CA
330
1F
100
AcDbEntity
  8
0
  6
Continuous
 62
     7
370
    15
100
AcDbLine
 10
8052.8924259056
 20
8547.1696553893
 30
0.0
 11
8052.8924259056
 21
8547.2808143265
 31
0.0
  0
LINE
  5
1CB
330
1F
100
AcDbEntity
  8
0
  6
Continuous
 62
     7
370
    15
100
AcDbLine
 10
11052.8924259056
 20
8547.1696553893
 30
0.0
 11
11052.8924259056
 21
8547.2808143265
 31
0.0
  0
LINE
  5
1CC
330
1F
100
AcDbEntity
  8
0
  6
Continuous
 62
     7
370
    15
100
AcDbLine
 10
11052.8924259056
 20
8547.3758259929
 30
0.0
 11
8052.8924259056
 21
8547.3758259929
 31
0.0
  0
LINE
  5
1CD
330
1F
100
AcDbEntity
  8
0
  6
Continuous
 62
     7
370
    15
100
AcDbLine
 10
8052.8924259056
 20
8547.2808143265
 30
0.0
 11
8052.8924259056
 21
8547.3758259929
 31
0.0
  0
LINE
  5
1CE
330
1F
100
AcDbEntity
  8
0
  6
Continuous
 62
     7
370
    15
100
AcDbLine
 10
11052.8924259056
 20
8547.2808143265
 30
0.0
 11
11052.8924259056
 21
8547.3758259929
 31
0.0
  0
LINE
  5
1CF
330
1F
100
AcDbEntity
  8
0
  6
Continuous
 62
     7
370
    15
100
AcDbLine
 10
11052.8924259056
 20
8524.4803892589
 30
0.0
 11
8052.8924259056
 21
8524.4803892589
 31
0.0
  0
LINE
  5
1D0
330
1F
100
AcDbEntity
  8
0
  6
Continuous
 62
     7
370
    15
100
AcDbLine
 10
8052.8924259056
 20
8524.4803892589
 30
0.0
 11
8052.8924259056
 21
8524.6309645615
 31
0.0
  0
LINE
  5
1D1
330
1F
100
AcDbEntity
  8
0
  6
Continuous
 62
     7
370
    15
100
AcDbLine
 10
11052.8924259056
 20
8524.4803892589
 30
0.0
 11
11052.8924259056
 21
8524.6309645615
 31
0.0
  0
LINE
  5
1D2
330
1F
100
AcDbEntity
  8
0
  6
Continuous
 62
     7
370
    15
100
AcDbLine
 10
11052.8924259056
 20
8547.4542983017
 30
0.0
 11
8052.8924259056
 21
8547.4542983017
 31
0.0
  0
LINE
  5
1D3
330
1F
100
AcDbEntity
  8
0
  6
Continuous
 62
     7
370
    15
100
AcDbLine
 10
8052.8924259056
 20
8547.3758259929
 30
0.0
 11
8052.8924259056
 21
8547.4542983017
 31
0.0
  0
LINE
  5
1D4
330
1F
100
AcDbEntity
  8
0
  6
Continuous
 62
     7
370
    15
100
AcDbLine
 10
11052.8924259056
 20
8547.3758259929
 30
0.0
 11
11052.8924259056
 21
8547.4542983017
 31
0.0
  0
LINE
  5
1D5
330
1F
100
AcDbEntity
  8
0
  6
Continuous
 62
     7
370
    15
100
AcDbLine
 10
11052.8924259056
 20
8524.3512436888
 30
0.0
 11
8052.8924259056
 21
8524.3512436888
 31
0.0
  0
LINE
  5
1D6
330
1F
100
AcDbEntity
  8
0
  6
Continuous
 62
     7
370
    15
100
AcDbLine
 10
8052.8924259056
 20
8524.3512436888
 30
0.0
 11
8052.8924259056
 21
8524.4803892589
 31
0.0
  0
LINE
  5
1D7
330
1F
100
AcDbEntity
  8
0
  6
Continuous
 62
     7
370
    15
100
AcDbLine
 10
11052.8924259056
 20
8524.3512436888
 30
0.0
 11
11052.8924259056
 21
8524.4803892589
 31
0.0
  0
LINE
  5
1D8
330
1F
100
AcDbEntity
  8
0
  6
Continuous
 62
     7
370
    15
100
AcDbLine
 10
11052.8924259056
 20
8547.5159071527
 30
0.0
 11
8052.8924259056
 21
8547.5159071527
 31
0.0
  0
LINE
  5
1D9
330
1F
100
AcDbEntity
  8
0
  6
Continuous
 62
     7
370
    15
100
AcDbLine
 10
8052.8924259056
 20
8547.4542983017
 30
0.0
 11
8052.8924259056
 21
8547.5159071527
 31
0.0
  0
LINE
  5
1DA
330
1F
100
AcDbEntity
  8
0
  6
Continuous
 62
     7
370
    15
100
AcDbLine
 10
11052.8924259056
 20
8547.4542983017
 30
0.0
 11
11052.8924259056
 21
8547.5159071527
 31
0.0
  0
LINE
  5
1DB
330
1F
100
AcDbEntity
  8
0
  6
Continuous
 62
     7
370
    15
100
AcDbLine
 10
11052.8924259056
 20
8524.2442580081
 30
0.0
 11
8052.8924259056
 21
8524.2442580081
 31
0.0
  0
LINE
  5
1DC
330
1F
100
AcDbEntity
  8
0
  6
Continuous
 62
     7
370
    15
100
AcDbLine
 10
8052.8924259056
 20
8524.2442580081
 30
0.0
 11
8052.8924259056
 21
8524.3512436888
 31
0.0
  0
LINE
  5
1DD
330
1F
100
AcDbEntity
  8
0
  6
Continuous
 62
     7
370
    15
100
AcDbLine
 10
11052.8924259056
 20
8524.2442580081
 30
0.0
 11
11052.8924259056
 21
8524.3512436888
 31
0.0
  0
LINE
  5
1DE
330
1F
100
AcDbEntity
  8
0
  6
Continuous
 62
     7
370
    15
100
AcDbLine
 10
11052.8924259056
 20
8547.7908680356
 30
0.0
 11
8052.8924259056
 21
8547.7908680356
 31
0.0
  0
LINE
  5
1DF
330
1F
100
AcDbEntity
  8
0
  6
Continuous
 62
     7
370
    15
100
AcDbLine
 10
8052.8924259056
 20
8547.7908680356
 30
0.0
 11
8052.8924259056
 21
8547.5159071527
 31
0.0
  0
LINE
  5
1E0
330
1F
100
AcDbEntity
  8
0
  6
Continuous
 62
     7
370
    15
100
AcDbLine
 10
11052.8924259056
 20
8547.7908680356
 30
0.0
 11
11052.8924259056
 21
8547.5159071527
 31
0.0
  0
LINE
  5
1E1
330
1F
100
AcDbEntity
  8
0
  6
Continuous
 62
     7
370
    15
100
AcDbLine
 10
11052.8924259056
 20
8524.160036645
 30
0.0
 11
8052.8924259056
 21
8524.160036645
 31
0.0
  0
LINE
  5
1E2
330
1F
100
AcDbEntity
  8
0
  6
Continuous
 62
     7
370
    15
100
AcDbLine
 10
8052.8924259056
 20
8524.160036645
 30
0.0
 11
8052.8924259056
 21
8524.2442580081
 31
0.0
  0
LINE
  5
1E3
330
1F
100
AcDbEntity
  8
0
  6
Continuous
 62
     7
370
    15
100
AcDbLine
 10
11052.8924259056
 20
8524.160036645
 30
0.0
 11
11052.8924259056
 21
8524.2442580081
 31
0.0
  0
LINE
  5
1E4
330
1F
100
AcDbEntity
  8
0
  6
Continuous
 62
     7
370
    15
100
AcDbLine
 10
11052.8924259056
 20
8523.5011696956
 30
0.0
 11
8052.8924259056
 21
8523.5011696956
 31
0.0
  0
LINE
  5
1E5
330
1F
100
AcDbEntity
  8
0
  6
Continuous
 62
     7
370
    15
100
AcDbLine
 10
8052.8924259056
 20
8523.5011696956
 30
0.0
 11
8052.8924259056
 21
8524.160036645
 31
0.0
  0
LINE
  5
1E6
330
1F
100
AcDbEntity
  8
0
  6
Continuous
 62
     7
370
    15
100
AcDbLine
 10
11052.8924259056
 20
8523.5011696956
 30
0.0
 11
11052.8924259056
 21
8524.160036645
 31
0.0
  0
LINE
  5
1E7
330
1F
100
AcDbEntity
  8
0
  6
Continuous
 62
     7
370
    15
100
AcDbLine
 10
11052.8924259056
 20
8547.8143112875
 30
0.0
 11
8052.8924259056
 21
8547.8143112875
 31
0.0
  0
LINE
  5
1E8
330
1F
100
AcDbEntity
  8
0
  6
Continuous
 62
     7
370
    15
100
AcDbLine
 10
8052.8924259056
 20
8547.8143112875
 30
0.0
 11
8052.8924259056
 21
8547.7908680356
 31
0.0
  0
LINE
  5
1E9
330
1F
100
AcDbEntity
  8
0
  6
Continuous
 62
     7
370
    15
100
AcDbLine
 10
11052.8924259056
 20
8547.8143112875
 30
0.0
 11
11052.8924259056
 21
8547.7908680356
 31
0.0
  0
LINE
  5
1EA
330
1F
100
AcDbEntity
  8
0
  6
Continuous
 62
     7
370
    15
100
AcDbLine
 10
11052.8924259056
 20
8547.8406733043
 30
0.0
 11
8052.8924259056
 21
8547.8406733043
 31
0.0
  0
LINE
  5
1EB
330
1F
100
AcDbEntity
  8
0
  6
Continuous
 62
     7
370
    15
100
AcDbLine
 10
8052.8924259056
 20
8547.8406733043
 30
0.0
 11
8052.8924259056
 21
8547.8143112875
 31
0.0
  0
LINE
  5
1EC
330
1F
100
AcDbEntity
  8
0
  6
Continuous
 62
     7
370
    15
100
AcDbLine
 10
11052.8924259056
 20
8547.8406733043
 30
0.0
 11
11052.8924259056
 21
8547.8143112875
 31
0.0
  0
LINE
  5
1ED
330
1F
100
AcDbEntity
  8
0
  6
Continuous
 62
     7
370
    15
100
AcDbLine
 10
11052.8924259056
 20
8548.2578424878
 30
0.0
 11
8052.8924259056
 21
8548.2578424878
 31
0.0
  0
LINE
  5
1EE
330
1F
100
AcDbEntity
  8
0
  6
Continuous
 62
     7
370
    15
100
AcDbLine
 10
8052.8924259056
 20
8548.2578424878
 30
0.0
 11
8052.8924259056
 21
8547.8406733043
 31
0.0
  0
LINE
  5
1EF
330
1F
100
AcDbEntity
  8
0
  6
Continuous
 62
     7
370
    15
100
AcDbLine
 10
11052.8924259056
 20
8548.2578424878
 30
0.0
 11
11052.8924259056
 21
8547.8406733043
 31
0.0
  0
LINE
  5
1F0
330
1F
100
AcDbEntity
  8
0
  6
Continuous
 62
     7
370
    15
100
AcDbLine
 10
11052.8924259056
 20
8548.3151132382
 30
0.0
 11
8052.8924259056
 21
8548.3151132382
 31
0.0
  0
LINE
  5
1F1
330
1F
100
AcDbEntity
  8
0
  6
Continuous
 62
     7
370
    15
100
AcDbLine
 10
8052.8924259056
 20
8548.2578424878
 30
0.0
 11
8052.8924259056
 21
8548.3151132382
 31
0.0
  0
LINE
  5
1F2
330
1F
100
AcDbEntity
  8
0
  6
Continuous
 62
     7
370
    15
100
AcDbLine
 10
11052.8924259056
 20
8548.2578424878
 30
0.0
 11
11052.8924259056
 21
8548.3151132382
 31
0.0
  0
LINE
  5
1F3
330
1F
100
AcDbEntity
  8
0
  6
Continuous
 62
     7
370
    15
100
AcDbLine
 10
11052.8924259056
 20
8523.4522761918
 30
0.0
 11
8052.8924259056
 21
8523.4522761918
 31
0.0
  0
LINE
  5
1F4
330
1F
100
AcDbEntity
  8
0
  6
Continuous
 62
     7
370
    15
100
AcDbLine
 10
8052.8924259056
 20
8523.4522761918
 30
0.0
 11
8052.8924259056
 21
8523.5011696956
 31
0.0
  0
LINE
  5
1F5
330
1F
100
AcDbEntity
  8
0
  6
Continuous
 62
     7
370
    15
100
AcDbLine
 10
11052.8924259056
 20
8523.4522761918
 30
0.0
 11
11052.8924259056
 21
8523.5011696956
 31
0.0
  0
LINE
  5
1F6
330
1F
100
AcDbEntity
  8
0
  6
Continuous
 62
     7
370
    15
100
AcDbLine
 10
11052.8924259056
 20
8548.3561817697
 30
0.0
 11
8052.8924259056
 21
8548.3561817697
 31
0.0
  0
LINE
  5
1F7
330
1F
100
AcDbEntity
  8
0
  6
Continuous
 62
     7
370
    15
100
AcDbLine
 10
8052.8924259056
 20
8548.3151132382
 30
0.0
 11
8052.8924259056
 21
8548.3561817697
 31
0.0
  0
LINE
  5
1F8
330
1F
100
AcDbEntity
  8
0
  6
Continuous
 62
     7
370
    15
100
AcDbLine
 10
11052.8924259056
 20
8548.3151132382
 30
0.0
 11
11052.8924259056
 21
8548.3561817697
 31
0.0
  0
LINE
  5
1F9
330
1F
100
AcDbEntity
  8
0
  6
Continuous
 62
     7
370
    15
100
AcDbLine
 10
11052.8924259056
 20
8523.4172351799
 30
0.0
 11
8052.8924259056
 21
8523.4172351799
 31
0.0
  0
LINE
  5
1FA
330
1F
100
AcDbEntity
  8
0
  6
Continuous
 62
     7
370
    15
100
AcDbLine
 10
8052.8924259056
 20
8523.4172351799
 30
0.0
 11
8052.8924259056
 21
8523.4522761918
 31
0.0
  0
LINE
  5
1FB
330
1F
100
AcDbEntity
  8
0
  6
Continuous
 62
     7
370
    15
100
AcDbLine
 10
11052.8924259056
 20
8523.4172351799
 30
0.0
 11
11052.8924259056
 21
8523.4522761918
 31
0.0
  0
LINE
  5
1FC
330
1F
100
AcDbEntity
  8
0
  6
Continuous
 62
     7
370
    15
100
AcDbLine
 10
11052.8924259056
 20
8548.3808869637
 30
0.0
 11
8052.8924259056
 21
8548.3808869637
 31
0.0
  0
LINE
  5
1FD
330
1F
100
AcDbEntity
  8
0
  6
Continuous
 62
     7
370
    15
100
AcDbLine
 10
8052.8924259056
 20
8548.3561817697
 30
0.0
 11
8052.8924259056
 21
8548.3808869637
 31
0.0
  0
LINE
  5
1FE
330
1F
100
AcDbEntity
  8
0
  6
Continuous
 62
     7
370
    15
100
AcDbLine
 10
11052.8924259056
 20
8548.3561817697
 30
0.0
 11
11052.8924259056
 21
8548.3808869637
 31
0.0
  0
LINE
  5
1FF
330
1F
100
AcDbEntity
  8
0
  6
Continuous
 62
     7
370
    15
100
AcDbLine
 10
11052.8924259056
 20
8523.3961640067
 30
0.0
 11
8052.8924259056
 21
8523.3961640067
 31
0.0
  0
LINE
  5
200
330
1F
100
AcDbEntity
  8
0
  6
Continuous
 62
     7
370
    15
100
AcDbLine
 10
8052.8924259056
 20
8523.3961640067
 30
0.0
 11
8052.8924259056
 21
8523.4172351799
 31
0.0
  0
LINE
  5
201
330
1F
100
AcDbEntity
  8
0
  6
Continuous
 62
     7
370
    15
100
AcDbLine
 10
11052.8924259056
 20
8523.3961640067
 30
0.0
 11
11052.8924259056
 21
8523.4172351799
 31
0.0
  0
LINE
  5
202
330
1F
100
AcDbEntity
  8
0
  6
Continuous
 62
     7
370
    15
100
AcDbLine
 10
8052.8924259056
 20
8548.3808869637
 30
0.0
 11
8052.8924259056
 21
8548.3891328937
 31
0.0
  0
LINE
  5
203
330
1F
100
AcDbEntity
  8
0
  6
Continuous
 62
     7
370
    15
100
AcDbLine
 10
11052.8924259056
 20
8548.3808869637
 30
0.0
 11
11052.8924259056
 21
8548.3891328937
 31
0.0
  0
LINE
  5
204
330
1F
100
AcDbEntity
  8
0
  6
Continuous
 62
     7
370
    15
100
AcDbLine
 10
8052.8924259056
 20
8523.3891325212
 30
0.0
 11
8052.8924259056
 21
8523.3961640067
 31
0.0
  0
LINE
  5
205
330
1F
100
AcDbEntity
  8
0
  6
Continuous
 62
     7
370
    15
100
AcDbLine
 10
11052.8924259056
 20
8523.3891325212
 30
0.0
 11
11052.8924259056
 21
8523.3961640067
 31
0.0
  0
LINE
  5
206
330
1F
100
AcDbEntity
  8
0
  6
Continuous
 62
     7
370
    15
100
AcDbLine
 10
3827.8145578342
 20
2380.3896816685
 30
0.0
 11
3827.8145578342
 21
5380.3896816685
 31
0.0
  0
LINE
  5
207
330
1F
100
AcDbEntity
  8
0
  6
Continuous
 62
     7
370
    15
100
AcDbLine
 10
3827.3226540013
 20
2380.3896816685
 30
0.0
 11
3827.3226540013
 21
5380.3896816685
 31
0.0
  0
LINE
  5
208
330
1F
100
AcDbEntity
  8
0
  6
Continuous
 62
     7
370
    15
100
AcDbLine
 10
3827.3226540013
 20
5380.3896816685
 30
0.0
 11
3827.8145578342
 21
5380.3896816685
 31
0.0
  0
LINE
  5
209
330
1F
100
AcDbEntity
  8
0
  6
Continuous
 62
     7
370
    15
100
AcDbLine
 10
3827.3226540013
 20
2380.3896816685
 30
0.0
 11
3827.8145578342
 21
2380.3896816685
 31
0.0
  0
LINE
  5
20A
330
1F
100
AcDbEntity
  8
0
  6
Continuous
 62
     7
370
    15
100
AcDbLine
 10
3827.0775209357
 20
2380.3896816685
 30
0.0
 11
3827.0775209357
 21
5380.3896816685
 31
0.0
  0
LINE
  5
20B
330
1F
100
AcDbEntity
  8
0
  6
Continuous
 62
     7
370
    15
100
AcDbLine
 10
3827.0775209357
 20
5380.3896816685
 30
0.0
 11
3827.3226540013
 21
5380.3896816685
 31
0.0
  0
LINE
  5
20C
330
1F
100
AcDbEntity
  8
0
  6
Continuous
 62
     7
370
    15
100
AcDbLine
 10
3827.0775209357
 20
2380.3896816685
 30
0.0
 11
3827.3226540013
 21
2380.3896816685
 31
0.0
  0
LINE
  5
20D
330
1F
100
AcDbEntity
  8
0
  6
Continuous
 62
     7
370
    15
100
AcDbLine
 10
3828.0596908707
 20
2380.3896816685
 30
0.0
 11
3828.0596908707
 21
5380.3896816685
 31
0.0
  0
LINE
  5
20E
330
1F
100
AcDbEntity
  8
0
  6
Continuous
 62
     7
370
    15
100
AcDbLine
 10
3827.8145578342
 20
5380.3896816685
 30
0.0
 11
3828.0596908707
 21
5380.3896816685
 31
0.0
  0
LINE
  5
20F
330
1F
100
AcDbEntity
  8
0
  6
Continuous
 62
     7
370
    15
100
AcDbLine
 10
3827.8145578342
 20
2380.3896816685
 30
0.0
 11
3828.0596908707
 21
2380.3896816685
 31
0.0
  0
LINE
  5
210
330
1F
100
AcDbEntity
  8
0
  6
Continuous
 62
     7
370
    15
100
AcDbLine
 10
3826.834022865
 20
2380.3896816685
 30
0.0
 11
3826.834022865
 21
5380.3896816685
 31
0.0
  0
LINE
  5
211
330
1F
100
AcDbEntity
  8
0
  6
Continuous
 62
     7
370
    15
100
AcDbLine
 10
3826.834022865
 20
5380.3896816685
 30
0.0
 11
3827.0775209357
 21
5380.3896816685
 31
0.0
  0
LINE
  5
212
330
1F
100
AcDbEntity
  8
0
  6
Continuous
 62
     7
370
    15
100
AcDbLine
 10
3826.834022865
 20
2380.3896816685
 30
0.0
 11
3827.0775209357
 21
2380.3896816685
 31
0.0
  0
LINE
  5
213
330
1F
100
AcDbEntity
  8
0
  6
Continuous
 62
     7
370
    15
100
AcDbLine
 10
3828.3031889413
 20
2380.3896816685
 30
0.0
 11
3828.3031889413
 21
5380.3896816685
 31
0.0
  0
LINE
  5
214
330
1F
100
AcDbEntity
  8
0
  6
Continuous
 62
     7
370
    15
100
AcDbLine
 10
3828.0596908707
 20
5380.3896816685
 30
0.0
 11
3828.3031889413
 21
5380.3896816685
 31
0.0
  0
LINE
  5
215
330
1F
100
AcDbEntity
  8
0
  6
Continuous
 62
     7
370
    15
100
AcDbLine
 10
3828.0596908707
 20
2380.3896816685
 30
0.0
 11
3828.3031889413
 21
2380.3896816685
 31
0.0
  0
LINE
  5
216
330
1F
100
AcDbEntity
  8
0
  6
Continuous
 62
     7
370
    15
100
AcDbLine
 10
3826.5929705057
 20
2380.3896816685
 30
0.0
 11
3826.5929705057
 21
5380.3896816685
 31
0.0
  0
LINE
  5
217
330
1F
100
AcDbEntity
  8
0
  6
Continuous
 62
     7
370
    15
100
AcDbLine
 10
3826.5929705057
 20
5380.3896816685
 30
0.0
 11
3826.834022865
 21
5380.3896816685
 31
0.0
  0
LINE
  5
218
330
1F
100
AcDbEntity
  8
0
  6
Continuous
 62
     7
370
    15
100
AcDbLine
 10
3826.5929705057
 20
2380.3896816685
 30
0.0
 11
3826.834022865
 21
2380.3896816685
 31
0.0
  0
LINE
  5
219
330
1F
100
AcDbEntity
  8
0
  6
Continuous
 62
     7
370
    15
100
AcDbLine
 10
3828.5442413589
 20
2380.3896816685
 30
0.0
 11
3828.5442413589
 21
5380.3896816685
 31
0.0
  0
LINE
  5
21A
330
1F
100
AcDbEntity
  8
0
  6
Continuous
 62
     7
370
    15
100
AcDbLine
 10
3828.3031889413
 20
5380.3896816685
 30
0.0
 11
3828.5442413589
 21
5380.3896816685
 31
0.0
  0
LINE
  5
21B
330
1F
100
AcDbEntity
  8
0
  6
Continuous
 62
     7
370
    15
100
AcDbLine
 10
3828.3031889413
 20
2380.3896816685
 30
0.0
 11
3828.5442413589
 21
2380.3896816685
 31
0.0
  0
LINE
  5
21C
330
1F
100
AcDbEntity
  8
0
  6
Continuous
 62
     7
370
    15
100
AcDbLine
 10
3823.7627606549
 20
2380.3896816685
 30
0.0
 11
3823.7627606549
 21
5380.3896816685
 31
0.0
  0
LINE
  5
21D
330
1F
100
AcDbEntity
  8
0
  6
Continuous
 62
     7
370
    15
100
AcDbLine
 10
3826.5929705057
 20
5380.3896816685
 30
0.0
 11
3823.7627606549
 21
5380.3896816685
 31
0.0
  0
LINE
  5
21E
330
1F
100
AcDbEntity
  8
0
  6
Continuous
 62
     7
370
    15
100
AcDbLine
 10
3826.5929705057
 20
2380.3896816685
 30
0.0
 11
3823.7627606549
 21
2380.3896816685
 31
0.0
  0
LINE
  5
21F
330
1F
100
AcDbEntity
  8
0
  6
Continuous
 62
     7
370
    15
100
AcDbLine
 10
3831.3744512097
 20
2380.3896816685
 30
0.0
 11
3831.3744512097
 21
5380.3896816685
 31
0.0
  0
LINE
  5
220
330
1F
100
AcDbEntity
  8
0
  6
Continuous
 62
     7
370
    15
100
AcDbLine
 10
3828.5442413589
 20
5380.3896816685
 30
0.0
 11
3831.3744512097
 21
5380.3896816685
 31
0.0
  0
LINE
  5
221
330
1F
100
AcDbEntity
  8
0
  6
Continuous
 62
     7
370
    15
100
AcDbLine
 10
3828.5442413589
 20
2380.3896816685
 30
0.0
 11
3831.3744512097
 21
2380.3896816685
 31
0.0
  0
LINE
  5
222
330
1F
100
AcDbEntity
  8
0
  6
Continuous
 62
     7
370
    15
100
AcDbLine
 10
3823.4536521312
 20
2380.3896816685
 30
0.0
 11
3823.4536521312
 21
5380.3896816685
 31
0.0
  0
LINE
  5
223
330
1F
100
AcDbEntity
  8
0
  6
Continuous
 62
     7
370
    15
100
AcDbLine
 10
3823.4536521312
 20
5380.3896816685
 30
0.0
 11
3823.7627606549
 21
5380.3896816685
 31
0.0
  0
LINE
  5
224
330
1F
100
AcDbEntity
  8
0
  6
Continuous
 62
     7
370
    15
100
AcDbLine
 10
3823.4536521312
 20
2380.3896816685
 30
0.0
 11
3823.7627606549
 21
2380.3896816685
 31
0.0
  0
LINE
  5
225
330
1F
100
AcDbEntity
  8
0
  6
Continuous
 62
     7
370
    15
100
AcDbLine
 10
3831.6835597333
 20
2380.3896816685
 30
0.0
 11
3831.6835597333
 21
5380.3896816685
 31
0.0
  0
LINE
  5
226
330
1F
100
AcDbEntity
  8
0
  6
Continuous
 62
     7
370
    15
100
AcDbLine
 10
3831.3744512097
 20
5380.3896816685
 30
0.0
 11
3831.6835597333
 21
5380.3896816685
 31
0.0
  0
LINE
  5
227
330
1F
100
AcDbEntity
  8
0
  6
Continuous
 62
     7
370
    15
100
AcDbLine
 10
3831.3744512097
 20
2380.3896816685
 30
0.0
 11
3831.6835597333
 21
2380.3896816685
 31
0.0
  0
LINE
  5
228
330
1F
100
AcDbEntity
  8
0
  6
Continuous
 62
     7
370
    15
100
AcDbLine
 10
3823.1518053625
 20
2380.3896816685
 30
0.0
 11
3823.1518053625
 21
5380.3896816685
 31
0.0
  0
LINE
  5
229
330
1F
100
AcDbEntity
  8
0
  6
Continuous
 62
     7
370
    15
100
AcDbLine
 10
3823.1518053625
 20
5380.3896816685
 30
0.0
 11
3823.4536521312
 21
5380.3896816685
 31
0.0
  0
LINE
  5
22A
330
1F
100
AcDbEntity
  8
0
  6
Continuous
 62
     7
370
    15
100
AcDbLine
 10
3823.1518053625
 20
2380.3896816685
 30
0.0
 11
3823.4536521312
 21
2380.3896816685
 31
0.0
  0
LINE
  5
22B
330
1F
100
AcDbEntity
  8
0
  6
Continuous
 62
     7
370
    15
100
AcDbLine
 10
3831.985406502
 20
2380.3896816685
 30
0.0
 11
3831.985406502
 21
5380.3896816685
 31
0.0
  0
LINE
  5
22C
330
1F
100
AcDbEntity
  8
0
  6
Continuous
 62
     7
370
    15
100
AcDbLine
 10
3831.6835597333
 20
5380.3896816685
 30
0.0
 11
3831.985406502
 21
5380.3896816685
 31
0.0
  0
LINE
  5
22D
330
1F
100
AcDbEntity
  8
0
  6
Continuous
 62
     7
370
    15
100
AcDbLine
 10
3831.6835597333
 20
2380.3896816685
 30
0.0
 11
3831.985406502
 21
2380.3896816685
 31
0.0
  0
LINE
  5
22E
330
1F
100
AcDbEntity
  8
0
  6
Continuous
 62
     7
370
    15
100
AcDbLine
 10
3822.8589253676
 20
2380.3896816685
 30
0.0
 11
3822.8589253676
 21
5380.3896816685
 31
0.0
  0
LINE
  5
22F
330
1F
100
AcDbEntity
  8
0
  6
Continuous
 62
     7
370
    15
100
AcDbLine
 10
3822.8589253676
 20
5380.3896816685
 30
0.0
 11
3823.1518053625
 21
5380.3896816685
 31
0.0
  0
LINE
  5
230
330
1F
100
AcDbEntity
  8
0
  6
Continuous
 62
     7
370
    15
100
AcDbLine
 10
3822.8589253676
 20
2380.3896816685
 30
0.0
 11
3823.1518053625
 21
2380.3896816685
 31
0.0
  0
LINE
  5
231
330
1F
100
AcDbEntity
  8
0
  6
Continuous
 62
     7
370
    15
100
AcDbLine
 10
3832.278286497
 20
2380.3896816685
 30
0.0
 11
3832.278286497
 21
5380.3896816685
 31
0.0
  0
LINE
  5
232
330
1F
100
AcDbEntity
  8
0
  6
Continuous
 62
     7
370
    15
100
AcDbLine
 10
3831.985406502
 20
5380.3896816685
 30
0.0
 11
3832.278286497
 21
5380.3896816685
 31
0.0
  0
LINE
  5
233
330
1F
100
AcDbEntity
  8
0
  6
Continuous
 62
     7
370
    15
100
AcDbLine
 10
3831.985406502
 20
2380.3896816685
 30
0.0
 11
3832.278286497
 21
2380.3896816685
 31
0.0
  0
LINE
  5
234
330
1F
100
AcDbEntity
  8
0
  6
Continuous
 62
     7
370
    15
100
AcDbLine
 10
3822.5766680379
 20
2380.3896816685
 30
0.0
 11
3822.5766680379
 21
5380.3896816685
 31
0.0
  0
LINE
  5
235
330
1F
100
AcDbEntity
  8
0
  6
Continuous
 62
     7
370
    15
100
AcDbLine
 10
3822.5766680379
 20
5380.3896816685
 30
0.0
 11
3822.8589253676
 21
5380.3896816685
 31
0.0
  0
LINE
  5
236
330
1F
100
AcDbEntity
  8
0
  6
Continuous
 62
     7
370
    15
100
AcDbLine
 10
3822.5766680379
 20
2380.3896816685
 30
0.0
 11
3822.8589253676
 21
2380.3896816685
 31
0.0
  0
LINE
  5
237
330
1F
100
AcDbEntity
  8
0
  6
Continuous
 62
     7
370
    15
100
AcDbLine
 10
3832.5605438266
 20
2380.3896816685
 30
0.0
 11
3832.5605438266
 21
5380.3896816685
 31
0.0
  0
LINE
  5
238
330
1F
100
AcDbEntity
  8
0
  6
Continuous
 62
     7
370
    15
100
AcDbLine
 10
3832.278286497
 20
5380.3896816685
 30
0.0
 11
3832.5605438266
 21
5380.3896816685
 31
0.0
  0
LINE
  5
239
330
1F
100
AcDbEntity
  8
0
  6
Continuous
 62
     7
370
    15
100
AcDbLine
 10
3832.278286497
 20
2380.3896816685
 30
0.0
 11
3832.5605438266
 21
2380.3896816685
 31
0.0
  0
LINE
  5
23A
330
1F
100
AcDbEntity
  8
0
  6
Continuous
 62
     7
370
    15
100
AcDbLine
 10
3819.7826462973
 20
2380.3896816685
 30
0.0
 11
3819.7826462973
 21
5380.3896816685
 31
0.0
  0
LINE
  5
23B
330
1F
100
AcDbEntity
  8
0
  6
Continuous
 62
     7
370
    15
100
AcDbLine
 10
3819.7826462973
 20
5380.3896816685
 30
0.0
 11
3822.5766680379
 21
5380.3896816685
 31
0.0
  0
LINE
  5
23C
330
1F
100
AcDbEntity
  8
0
  6
Continuous
 62
     7
370
    15
100
AcDbLine
 10
3819.7826462973
 20
2380.3896816685
 30
0.0
 11
3822.5766680379
 21
2380.3896816685
 31
0.0
  0
LINE
  5
23D
330
1F
100
AcDbEntity
  8
0
  6
Continuous
 62
     7
370
    15
100
AcDbLine
 10
3835.3545655672
 20
2380.3896816685
 30
0.0
 11
3835.3545655672
 21
5380.3896816685
 31
0.0
  0
LINE
  5
23E
330
1F
100
AcDbEntity
  8
0
  6
Continuous
 62
     7
370
    15
100
AcDbLine
 10
3835.3545655672
 20
5380.3896816685
 30
0.0
 11
3832.5605438266
 21
5380.3896816685
 31
0.0
  0
LINE
  5
23F
330
1F
100
AcDbEntity
  8
0
  6
Continuous
 62
     7
370
    15
100
AcDbLine
 10
3835.3545655672
 20
2380.3896816685
 30
0.0
 11
3832.5605438266
 21
2380.3896816685
 31
0.0
  0
LINE
  5
240
330
1F
100
AcDbEntity
  8
0
  6
Continuous
 62
     7
370
    15
100
AcDbLine
 10
3819.5626767528
 20
2380.3896816685
 30
0.0
 11
3819.5626767528
 21
5380.3896816685
 31
0.0
  0
LINE
  5
241
330
1F
100
AcDbEntity
  8
0
  6
Continuous
 62
     7
370
    15
100
AcDbLine
 10
3819.5626767528
 20
5380.3896816685
 30
0.0
 11
3819.7826462973
 21
5380.3896816685
 31
0.0
  0
LINE
  5
242
330
1F
100
AcDbEntity
  8
0
  6
Continuous
 62
     7
370
    15
100
AcDbLine
 10
3819.5626767528
 20
2380.3896816685
 30
0.0
 11
3819.7826462973
 21
2380.3896816685
 31
0.0
  0
LINE
  5
243
330
1F
100
AcDbEntity
  8
0
  6
Continuous
 62
     7
370
    15
100
AcDbLine
 10
3835.5745351118
 20
2380.3896816685
 30
0.0
 11
3835.5745351118
 21
5380.3896816685
 31
0.0
  0
LINE
  5
244
330
1F
100
AcDbEntity
  8
0
  6
Continuous
 62
     7
370
    15
100
AcDbLine
 10
3835.3545655672
 20
5380.3896816685
 30
0.0
 11
3835.5745351118
 21
5380.3896816685
 31
0.0
  0
LINE
  5
245
330
1F
100
AcDbEntity
  8
0
  6
Continuous
 62
     7
370
    15
100
AcDbLine
 10
3835.3545655672
 20
2380.3896816685
 30
0.0
 11
3835.5745351118
 21
2380.3896816685
 31
0.0
  0
LINE
  5
246
330
1F
100
AcDbEntity
  8
0
  6
Continuous
 62
     7
370
    15
100
AcDbLine
 10
3819.3515580323
 20
2380.3896816685
 30
0.0
 11
3819.3515580323
 21
5380.3896816685
 31
0.0
  0
LINE
  5
247
330
1F
100
AcDbEntity
  8
0
  6
Continuous
 62
     7
370
    15
100
AcDbLine
 10
3819.3515580323
 20
5380.3896816685
 30
0.0
 11
3819.5626767528
 21
5380.3896816685
 31
0.0
  0
LINE
  5
248
330
1F
100
AcDbEntity
  8
0
  6
Continuous
 62
     7
370
    15
100
AcDbLine
 10
3819.3515580323
 20
2380.3896816685
 30
0.0
 11
3819.5626767528
 21
2380.3896816685
 31
0.0
  0
LINE
  5
249
330
1F
100
AcDbEntity
  8
0
  6
Continuous
 62
     7
370
    15
100
AcDbLine
 10
3835.7856538322
 20
2380.3896816685
 30
0.0
 11
3835.7856538322
 21
5380.3896816685
 31
0.0
  0
LINE
  5
24A
330
1F
100
AcDbEntity
  8
0
  6
Continuous
 62
     7
370
    15
100
AcDbLine
 10
3835.5745351118
 20
5380.3896816685
 30
0.0
 11
3835.7856538322
 21
5380.3896816685
 31
0.0
  0
LINE
  5
24B
330
1F
100
AcDbEntity
  8
0
  6
Continuous
 62
     7
370
    15
100
AcDbLine
 10
3835.5745351118
 20
2380.3896816685
 30
0.0
 11
3835.7856538322
 21
2380.3896816685
 31
0.0
  0
LINE
  5
24C
330
1F
100
AcDbEntity
  8
0
  6
Continuous
 62
     7
370
    15
100
AcDbLine
 10
3819.1500766378
 20
2380.3896816685
 30
0.0
 11
3819.1500766378
 21
5380.3896816685
 31
0.0
  0
LINE
  5
24D
330
1F
100
AcDbEntity
  8
0
  6
Continuous
 62
     7
370
    15
100
AcDbLine
 10
3819.1500766378
 20
5380.3896816685
 30
0.0
 11
3819.3515580323
 21
5380.3896816685
 31
0.0
  0
LINE
  5
24E
330
1F
100
AcDbEntity
  8
0
  6
Continuous
 62
     7
370
    15
100
AcDbLine
 10
3819.1500766378
 20
2380.3896816685
 30
0.0
 11
3819.3515580323
 21
2380.3896816685
 31
0.0
  0
LINE
  5
24F
330
1F
100
AcDbEntity
  8
0
  6
Continuous
 62
     7
370
    15
100
AcDbLine
 10
3835.9871352267
 20
2380.3896816685
 30
0.0
 11
3835.9871352267
 21
5380.3896816685
 31
0.0
  0
LINE
  5
250
330
1F
100
AcDbEntity
  8
0
  6
Continuous
 62
     7
370
    15
100
AcDbLine
 10
3835.7856538322
 20
5380.3896816685
 30
0.0
 11
3835.9871352267
 21
5380.3896816685
 31
0.0
  0
LINE
  5
251
330
1F
100
AcDbEntity
  8
0
  6
Continuous
 62
     7
370
    15
100
AcDbLine
 10
3835.7856538322
 20
2380.3896816685
 30
0.0
 11
3835.9871352267
 21
2380.3896816685
 31
0.0
  0
LINE
  5
252
330
1F
100
AcDbEntity
  8
0
  6
Continuous
 62
     7
370
    15
100
AcDbLine
 10
3818.9589804214
 20
2380.3896816685
 30
0.0
 11
3818.9589804214
 21
5380.3896816685
 31
0.0
  0
LINE
  5
253
330
1F
100
AcDbEntity
  8
0
  6
Continuous
 62
     7
370
    15
100
AcDbLine
 10
3818.9589804214
 20
5380.3896816685
 30
0.0
 11
3819.1500766378
 21
5380.3896816685
 31
0.0
  0
LINE
  5
254
330
1F
100
AcDbEntity
  8
0
  6
Continuous
 62
     7
370
    15
100
AcDbLine
 10
3818.9589804214
 20
2380.3896816685
 30
0.0
 11
3819.1500766378
 21
2380.3896816685
 31
0.0
  0
LINE
  5
255
330
1F
100
AcDbEntity
  8
0
  6
Continuous
 62
     7
370
    15
100
AcDbLine
 10
3836.1782314431
 20
2380.3896816685
 30
0.0
 11
3836.1782314431
 21
5380.3896816685
 31
0.0
  0
LINE
  5
256
330
1F
100
AcDbEntity
  8
0
  6
Continuous
 62
     7
370
    15
100
AcDbLine
 10
3835.9871352267
 20
5380.3896816685
 30
0.0
 11
3836.1782314431
 21
5380.3896816685
 31
0.0
  0
LINE
  5
257
330
1F
100
AcDbEntity
  8
0
  6
Continuous
 62
     7
370
    15
100
AcDbLine
 10
3835.9871352267
 20
2380.3896816685
 30
0.0
 11
3836.1782314431
 21
2380.3896816685
 31
0.0
  0
LINE
  5
258
330
1F
100
AcDbEntity
  8
0
  6
Continuous
 62
     7
370
    15
100
AcDbLine
 10
3818.7789799821
 20
2380.3896816685
 30
0.0
 11
3818.7789799821
 21
5380.3896816685
 31
0.0
  0
LINE
  5
259
330
1F
100
AcDbEntity
  8
0
  6
Continuous
 62
     7
370
    15
100
AcDbLine
 10
3818.7789799821
 20
5380.3896816685
 30
0.0
 11
3818.9589804214
 21
5380.3896816685
 31
0.0
  0
LINE
  5
25A
330
1F
100
AcDbEntity
  8
0
  6
Continuous
 62
     7
370
    15
100
AcDbLine
 10
3818.7789799821
 20
2380.3896816685
 30
0.0
 11
3818.9589804214
 21
2380.3896816685
 31
0.0
  0
LINE
  5
25B
330
1F
100
AcDbEntity
  8
0
  6
Continuous
 62
     7
370
    15
100
AcDbLine
 10
3836.3582318824
 20
2380.3896816685
 30
0.0
 11
3836.3582318824
 21
5380.3896816685
 31
0.0
  0
LINE
  5
25C
330
1F
100
AcDbEntity
  8
0
  6
Continuous
 62
     7
370
    15
100
AcDbLine
 10
3836.1782314431
 20
5380.3896816685
 30
0.0
 11
3836.3582318824
 21
5380.3896816685
 31
0.0
  0
LINE
  5
25D
330
1F
100
AcDbEntity
  8
0
  6
Continuous
 62
     7
370
    15
100
AcDbLine
 10
3836.1782314431
 20
2380.3896816685
 30
0.0
 11
3836.3582318824
 21
2380.3896816685
 31
0.0
  0
LINE
  5
25E
330
1F
100
AcDbEntity
  8
0
  6
Continuous
 62
     7
370
    15
100
AcDbLine
 10
3818.6107430783
 20
2380.3896816685
 30
0.0
 11
3818.6107430783
 21
5380.3896816685
 31
0.0
  0
LINE
  5
25F
330
1F
100
AcDbEntity
  8
0
  6
Continuous
 62
     7
370
    15
100
AcDbLine
 10
3818.6107430783
 20
5380.3896816685
 30
0.0
 11
3818.7789799821
 21
5380.3896816685
 31
0.0
  0
LINE
  5
260
330
1F
100
AcDbEntity
  8
0
  6
Continuous
 62
     7
370
    15
100
AcDbLine
 10
3818.6107430783
 20
2380.3896816685
 30
0.0
 11
3818.7789799821
 21
2380.3896816685
 31
0.0
  0
LINE
  5
261
330
1F
100
AcDbEntity
  8
0
  6
Continuous
 62
     7
370
    15
100
AcDbLine
 10
3836.5264687863
 20
2380.3896816685
 30
0.0
 11
3836.5264687863
 21
5380.3896816685
 31
0.0
  0
LINE
  5
262
330
1F
100
AcDbEntity
  8
0
  6
Continuous
 62
     7
370
    15
100
AcDbLine
 10
3836.3582318824
 20
5380.3896816685
 30
0.0
 11
3836.5264687863
 21
5380.3896816685
 31
0.0
  0
LINE
  5
263
330
1F
100
AcDbEntity
  8
0
  6
Continuous
 62
     7
370
    15
100
AcDbLine
 10
3836.3582318824
 20
2380.3896816685
 30
0.0
 11
3836.5264687863
 21
2380.3896816685
 31
0.0
  0
LINE
  5
264
330
1F
100
AcDbEntity
  8
0
  6
Continuous
 62
     7
370
    15
100
AcDbLine
 10
3818.45489649
 20
2380.3896816685
 30
0.0
 11
3818.45489649
 21
5380.3896816685
 31
0.0
  0
LINE
  5
265
330
1F
100
AcDbEntity
  8
0
  6
Continuous
 62
     7
370
    15
100
AcDbLine
 10
3818.45489649
 20
5380.3896816685
 30
0.0
 11
3818.6107430783
 21
5380.3896816685
 31
0.0
  0
LINE
  5
266
330
1F
100
AcDbEntity
  8
0
  6
Continuous
 62
     7
370
    15
100
AcDbLine
 10
3818.45489649
 20
2380.3896816685
 30
0.0
 11
3818.6107430783
 21
2380.3896816685
 31
0.0
  0
LINE
  5
267
330
1F
100
AcDbEntity
  8
0
  6
Continuous
 62
     7
370
    15
100
AcDbLine
 10
3836.6823153746
 20
2380.3896816685
 30
0.0
 11
3836.6823153746
 21
5380.3896816685
 31
0.0
  0
LINE
  5
268
330
1F
100
AcDbEntity
  8
0
  6
Continuous
 62
     7
370
    15
100
AcDbLine
 10
3836.5264687863
 20
5380.3896816685
 30
0.0
 11
3836.6823153746
 21
5380.3896816685
 31
0.0
  0
LINE
  5
269
330
1F
100
AcDbEntity
  8
0
  6
Continuous
 62
     7
370
    15
100
AcDbLine
 10
3836.5264687863
 20
2380.3896816685
 30
0.0
 11
3836.6823153746
 21
2380.3896816685
 31
0.0
  0
LINE
  5
26A
330
1F
100
AcDbEntity
  8
0
  6
Continuous
 62
     7
370
    15
100
AcDbLine
 10
3818.3120185685
 20
2380.3896816685
 30
0.0
 11
3818.3120185685
 21
5380.3896816685
 31
0.0
  0
LINE
  5
26B
330
1F
100
AcDbEntity
  8
0
  6
Continuous
 62
     7
370
    15
100
AcDbLine
 10
3818.3120185685
 20
5380.3896816685
 30
0.0
 11
3818.45489649
 21
5380.3896816685
 31
0.0
  0
LINE
  5
26C
330
1F
100
AcDbEntity
  8
0
  6
Continuous
 62
     7
370
    15
100
AcDbLine
 10
3818.3120185685
 20
2380.3896816685
 30
0.0
 11
3818.45489649
 21
2380.3896816685
 31
0.0
  0
LINE
  5
26D
330
1F
100
AcDbEntity
  8
0
  6
Continuous
 62
     7
370
    15
100
AcDbLine
 10
3836.8251932961
 20
2380.3896816685
 30
0.0
 11
3836.8251932961
 21
5380.3896816685
 31
0.0
  0
LINE
  5
26E
330
1F
100
AcDbEntity
  8
0
  6
Continuous
 62
     7
370
    15
100
AcDbLine
 10
3836.6823153746
 20
5380.3896816685
 30
0.0
 11
3836.8251932961
 21
5380.3896816685
 31
0.0
  0
LINE
  5
26F
330
1F
100
AcDbEntity
  8
0
  6
Continuous
 62
     7
370
    15
100
AcDbLine
 10
3836.6823153746
 20
2380.3896816685
 30
0.0
 11
3836.8251932961
 21
2380.3896816685
 31
0.0
  0
LINE
  5
270
330
1F
100
AcDbEntity
  8
0
  6
Continuous
 62
     7
370
    15
100
AcDbLine
 10
3815.9951040697
 20
2380.3896816685
 30
0.0
 11
3815.9951040697
 21
5380.3896816685
 31
0.0
  0
LINE
  5
271
330
1F
100
AcDbEntity
  8
0
  6
Continuous
 62
     7
370
    15
100
AcDbLine
 10
3815.9951040697
 20
5380.3896816685
 30
0.0
 11
3818.3120185685
 21
5380.3896816685
 31
0.0
  0
LINE
  5
272
330
1F
100
AcDbEntity
  8
0
  6
Continuous
 62
     7
370
    15
100
AcDbLine
 10
3815.9951040697
 20
2380.3896816685
 30
0.0
 11
3818.3120185685
 21
2380.3896816685
 31
0.0
  0
LINE
  5
273
330
1F
100
AcDbEntity
  8
0
  6
Continuous
 62
     7
370
    15
100
AcDbLine
 10
3839.1421077949
 20
2380.3896816685
 30
0.0
 11
3839.1421077949
 21
5380.3896816685
 31
0.0
  0
LINE
  5
274
330
1F
100
AcDbEntity
  8
0
  6
Continuous
 62
     7
370
    15
100
AcDbLine
 10
3839.1421077949
 20
5380.3896816685
 30
0.0
 11
3836.8251932961
 21
5380.3896816685
 31
0.0
  0
LINE
  5
275
330
1F
100
AcDbEntity
  8
0
  6
Continuous
 62
     7
370
    15
100
AcDbLine
 10
3839.1421077949
 20
2380.3896816685
 30
0.0
 11
3836.8251932961
 21
2380.3896816685
 31
0.0
  0
LINE
  5
276
330
1F
100
AcDbEntity
  8
0
  6
Continuous
 62
     7
370
    15
100
AcDbLine
 10
3815.8877067444
 20
2380.3896816685
 30
0.0
 11
3815.8877067444
 21
5380.3896816685
 31
0.0
  0
LINE
  5
277
330
1F
100
AcDbEntity
  8
0
  6
Continuous
 62
     7
370
    15
100
AcDbLine
 10
3815.8877067444
 20
5380.3896816685
 30
0.0
 11
3815.9951040697
 21
5380.3896816685
 31
0.0
  0
LINE
  5
278
330
1F
100
AcDbEntity
  8
0
  6
Continuous
 62
     7
370
    15
100
AcDbLine
 10
3815.8877067444
 20
2380.3896816685
 30
0.0
 11
3815.9951040697
 21
2380.3896816685
 31
0.0
  0
LINE
  5
279
330
1F
100
AcDbEntity
  8
0
  6
Continuous
 62
     7
370
    15
100
AcDbLine
 10
3839.2495051202
 20
2380.3896816685
 30
0.0
 11
3839.2495051202
 21
5380.3896816685
 31
0.0
  0
LINE
  5
27A
330
1F
100
AcDbEntity
  8
0
  6
Continuous
 62
     7
370
    15
100
AcDbLine
 10
3839.1421077949
 20
5380.3896816685
 30
0.0
 11
3839.2495051202
 21
5380.3896816685
 31
0.0
  0
LINE
  5
27B
330
1F
100
AcDbEntity
  8
0
  6
Continuous
 62
     7
370
    15
100
AcDbLine
 10
3839.1421077949
 20
2380.3896816685
 30
0.0
 11
3839.2495051202
 21
2380.3896816685
 31
0.0
  0
LINE
  5
27C
330
1F
100
AcDbEntity
  8
0
  6
Continuous
 62
     7
370
    15
100
AcDbLine
 10
3815.7897092578
 20
2380.3896816685
 30
0.0
 11
3815.7897092578
 21
5380.3896816685
 31
0.0
  0
LINE
  5
27D
330
1F
100
AcDbEntity
  8
0
  6
Continuous
 62
     7
370
    15
100
AcDbLine
 10
3815.7897092578
 20
5380.3896816685
 30
0.0
 11
3815.8877067444
 21
5380.3896816685
 31
0.0
  0
LINE
  5
27E
330
1F
100
AcDbEntity
  8
0
  6
Continuous
 62
     7
370
    15
100
AcDbLine
 10
3815.7897092578
 20
2380.3896816685
 30
0.0
 11
3815.8877067444
 21
2380.3896816685
 31
0.0
  0
LINE
  5
27F
330
1F
100
AcDbEntity
  8
0
  6
Continuous
 62
     7
370
    15
100
AcDbLine
 10
3839.3475026068
 20
2380.3896816685
 30
0.0
 11
3839.3475026068
 21
5380.3896816685
 31
0.0
  0
LINE
  5
280
330
1F
100
AcDbEntity
  8
0
  6
Continuous
 62
     7
370
    15
100
AcDbLine
 10
3839.2495051202
 20
5380.3896816685
 30
0.0
 11
3839.3475026068
 21
5380.3896816685
 31
0.0
  0
LINE
  5
281
330
1F
100
AcDbEntity
  8
0
  6
Continuous
 62
     7
370
    15
100
AcDbLine
 10
3839.2495051202
 20
2380.3896816685
 30
0.0
 11
3839.3475026068
 21
2380.3896816685
 31
0.0
  0
LINE
  5
282
330
1F
100
AcDbEntity
  8
0
  6
Continuous
 62
     7
370
    15
100
AcDbLine
 10
3815.7013574791
 20
2380.3896816685
 30
0.0
 11
3815.7013574791
 21
5380.3896816685
 31
0.0
  0
LINE
  5
283
330
1F
100
AcDbEntity
  8
0
  6
Continuous
 62
     7
370
    15
100
AcDbLine
 10
3815.7013574791
 20
5380.3896816685
 30
0.0
 11
3815.7897092578
 21
5380.3896816685
 31
0.0
  0
LINE
  5
284
330
1F
100
AcDbEntity
  8
0
  6
Continuous
 62
     7
370
    15
100
AcDbLine
 10
3815.7013574791
 20
2380.3896816685
 30
0.0
 11
3815.7897092578
 21
2380.3896816685
 31
0.0
  0
LINE
  5
285
330
1F
100
AcDbEntity
  8
0
  6
Continuous
 62
     7
370
    15
100
AcDbLine
 10
3839.4358543855
 20
2380.3896816685
 30
0.0
 11
3839.4358543855
 21
5380.3896816685
 31
0.0
  0
LINE
  5
286
330
1F
100
AcDbEntity
  8
0
  6
Continuous
 62
     7
370
    15
100
AcDbLine
 10
3839.3475026068
 20
5380.3896816685
 30
0.0
 11
3839.4358543855
 21
5380.3896816685
 31
0.0
  0
LINE
  5
287
330
1F
100
AcDbEntity
  8
0
  6
Continuous
 62
     7
370
    15
100
AcDbLine
 10
3839.3475026068
 20
2380.3896816685
 30
0.0
 11
3839.4358543855
 21
2380.3896816685
 31
0.0
  0
LINE
  5
288
330
1F
100
AcDbEntity
  8
0
  6
Continuous
 62
     7
370
    15
100
AcDbLine
 10
3815.6228739944
 20
2380.3896816685
 30
0.0
 11
3815.6228739944
 21
5380.3896816685
 31
0.0
  0
LINE
  5
289
330
1F
100
AcDbEntity
  8
0
  6
Continuous
 62
     7
370
    15
100
AcDbLine
 10
3815.6228739944
 20
5380.3896816685
 30
0.0
 11
3815.7013574791
 21
5380.3896816685
 31
0.0
  0
LINE
  5
28A
330
1F
100
AcDbEntity
  8
0
  6
Continuous
 62
     7
370
    15
100
AcDbLine
 10
3815.6228739944
 20
2380.3896816685
 30
0.0
 11
3815.7013574791
 21
2380.3896816685
 31
0.0
  0
LINE
  5
28B
330
1F
100
AcDbEntity
  8
0
  6
Continuous
 62
     7
370
    15
100
AcDbLine
 10
3839.5143378702
 20
2380.3896816685
 30
0.0
 11
3839.5143378702
 21
5380.3896816685
 31
0.0
  0
LINE
  5
28C
330
1F
100
AcDbEntity
  8
0
  6
Continuous
 62
     7
370
    15
100
AcDbLine
 10
3839.4358543855
 20
5380.3896816685
 30
0.0
 11
3839.5143378702
 21
5380.3896816685
 31
0.0
  0
LINE
  5
28D
330
1F
100
AcDbEntity
  8
0
  6
Continuous
 62
     7
370
    15
100
AcDbLine
 10
3839.4358543855
 20
2380.3896816685
 30
0.0
 11
3839.5143378702
 21
2380.3896816685
 31
0.0
  0
LINE
  5
28E
330
1F
100
AcDbEntity
  8
0
  6
Continuous
 62
     7
370
    15
100
AcDbLine
 10
3815.5544553128
 20
2380.3896816685
 30
0.0
 11
3815.5544553128
 21
5380.3896816685
 31
0.0
  0
LINE
  5
28F
330
1F
100
AcDbEntity
  8
0
  6
Continuous
 62
     7
370
    15
100
AcDbLine
 10
3815.5544553128
 20
5380.3896816685
 30
0.0
 11
3815.6228739944
 21
5380.3896816685
 31
0.0
  0
LINE
  5
290
330
1F
100
AcDbEntity
  8
0
  6
Continuous
 62
     7
370
    15
100
AcDbLine
 10
3815.5544553128
 20
2380.3896816685
 30
0.0
 11
3815.6228739944
 21
2380.3896816685
 31
0.0
  0
LINE
  5
291
330
1F
100
AcDbEntity
  8
0
  6
Continuous
 62
     7
370
    15
100
AcDbLine
 10
3839.5827565518
 20
2380.3896816685
 30
0.0
 11
3839.5827565518
 21
5380.3896816685
 31
0.0
  0
LINE
  5
292
330
1F
100
AcDbEntity
  8
0
  6
Continuous
 62
     7
370
    15
100
AcDbLine
 10
3839.5143378702
 20
5380.3896816685
 30
0.0
 11
3839.5827565518
 21
5380.3896816685
 31
0.0
  0
LINE
  5
293
330
1F
100
AcDbEntity
  8
0
  6
Continuous
 62
     7
370
    15
100
AcDbLine
 10
3839.5143378702
 20
2380.3896816685
 30
0.0
 11
3839.5827565518
 21
2380.3896816685
 31
0.0
  0
LINE
  5
294
330
1F
100
AcDbEntity
  8
0
  6
Continuous
 62
     7
370
    15
100
AcDbLine
 10
3815.4962727976
 20
2380.3896816685
 30
0.0
 11
3815.4962727976
 21
5380.3896816685
 31
0.0
  0
LINE
  5
295
330
1F
100
AcDbEntity
  8
0
  6
Continuous
 62
     7
370
    15
100
AcDbLine
 10
3815.4962727976
 20
5380.3896816685
 30
0.0
 11
3815.5544553128
 21
5380.3896816685
 31
0.0
  0
LINE
  5
296
330
1F
100
AcDbEntity
  8
0
  6
Continuous
 62
     7
370
    15
100
AcDbLine
 10
3815.4962727976
 20
2380.3896816685
 30
0.0
 11
3815.5544553128
 21
2380.3896816685
 31
0.0
  0
LINE
  5
297
330
1F
100
AcDbEntity
  8
0
  6
Continuous
 62
     7
370
    15
100
AcDbLine
 10
3839.640939067
 20
2380.3896816685
 30
0.0
 11
3839.640939067
 21
5380.3896816685
 31
0.0
  0
LINE
  5
298
330
1F
100
AcDbEntity
  8
0
  6
Continuous
 62
     7
370
    15
100
AcDbLine
 10
3839.5827565518
 20
5380.3896816685
 30
0.0
 11
3839.640939067
 21
5380.3896816685
 31
0.0
  0
LINE
  5
299
330
1F
100
AcDbEntity
  8
0
  6
Continuous
 62
     7
370
    15
100
AcDbLine
 10
3839.5827565518
 20
2380.3896816685
 30
0.0
 11
3839.640939067
 21
2380.3896816685
 31
0.0
  0
LINE
  5
29A
330
1F
100
AcDbEntity
  8
0
  6
Continuous
 62
     7
370
    15
100
AcDbLine
 10
3815.4484745291
 20
2380.3896816685
 30
0.0
 11
3815.4484745291
 21
5380.3896816685
 31
0.0
  0
LINE
  5
29B
330
1F
100
AcDbEntity
  8
0
  6
Continuous
 62
     7
370
    15
100
AcDbLine
 10
3815.4484745291
 20
5380.3896816685
 30
0.0
 11
3815.4962727976
 21
5380.3896816685
 31
0.0
  0
LINE
  5
29C
330
1F
100
AcDbEntity
  8
0
  6
Continuous
 62
     7
370
    15
100
AcDbLine
 10
3815.4484745291
 20
2380.3896816685
 30
0.0
 11
3815.4962727976
 21
2380.3896816685
 31
0.0
  0
LINE
  5
29D
330
1F
100
AcDbEntity
  8
0
  6
Continuous
 62
     7
370
    15
100
AcDbLine
 10
3839.6887373355
 20
2380.3896816685
 30
0.0
 11
3839.6887373355
 21
5380.3896816685
 31
0.0
  0
LINE
  5
29E
330
1F
100
AcDbEntity
  8
0
  6
Continuous
 62
     7
370
    15
100
AcDbLine
 10
3839.640939067
 20
5380.3896816685
 30
0.0
 11
3839.6887373355
 21
5380.3896816685
 31
0.0
  0
LINE
  5
29F
330
1F
100
AcDbEntity
  8
0
  6
Continuous
 62
     7
370
    15
100
AcDbLine
 10
3839.640939067
 20
2380.3896816685
 30
0.0
 11
3839.6887373355
 21
2380.3896816685
 31
0.0
  0
LINE
  5
2A0
330
1F
100
AcDbEntity
  8
0
  6
Continuous
 62
     7
370
    15
100
AcDbLine
 10
3815.4111797166
 20
2380.3896816685
 30
0.0
 11
3815.4111797166
 21
5380.3896816685
 31
0.0
  0
LINE
  5
2A1
330
1F
100
AcDbEntity
  8
0
  6
Continuous
 62
     7
370
    15
100
AcDbLine
 10
3815.4111797166
 20
5380.3896816685
 30
0.0
 11
3815.4484745291
 21
5380.3896816685
 31
0.0
  0
LINE
  5
2A2
330
1F
100
AcDbEntity
  8
0
  6
Continuous
 62
     7
370
    15
100
AcDbLine
 10
3815.4111797166
 20
2380.3896816685
 30
0.0
 11
3815.4484745291
 21
2380.3896816685
 31
0.0
  0
LINE
  5
2A3
330
1F
100
AcDbEntity
  8
0
  6
Continuous
 62
     7
370
    15
100
AcDbLine
 10
3839.726032148
 20
2380.3896816685
 30
0.0
 11
3839.726032148
 21
5380.3896816685
 31
0.0
  0
LINE
  5
2A4
330
1F
100
AcDbEntity
  8
0
  6
Continuous
 62
     7
370
    15
100
AcDbLine
 10
3839.6887373355
 20
5380.3896816685
 30
0.0
 11
3839.726032148
 21
5380.3896816685
 31
0.0
  0
LINE
  5
2A5
330
1F
100
AcDbEntity
  8
0
  6
Continuous
 62
     7
370
    15
100
AcDbLine
 10
3839.6887373355
 20
2380.3896816685
 30
0.0
 11
3839.726032148
 21
2380.3896816685
 31
0.0
  0
LINE
  5
2A6
330
1F
100
AcDbEntity
  8
0
  6
Continuous
 62
     7
370
    15
100
AcDbLine
 10
3815.1166675788
 20
2380.3896816685
 30
0.0
 11
3815.1166675788
 21
5380.3896816685
 31
0.0
  0
LINE
  5
2A7
330
1F
100
AcDbEntity
  8
0
  6
Continuous
 62
     7
370
    15
100
AcDbLine
 10
3815.1166675788
 20
5380.3896816685
 30
0.0
 11
3815.4111797166
 21
5380.3896816685
 31
0.0
  0
LINE
  5
2A8
330
1F
100
AcDbEntity
  8
0
  6
Continuous
 62
     7
370
    15
100
AcDbLine
 10
3815.1166675788
 20
2380.3896816685
 30
0.0
 11
3815.4111797166
 21
2380.3896816685
 31
0.0
  0
LINE
  5
2A9
330
1F
100
AcDbEntity
  8
0
  6
Continuous
 62
     7
370
    15
100
AcDbLine
 10
3840.0205442858
 20
2380.3896816685
 30
0.0
 11
3840.0205442858
 21
5380.3896816685
 31
0.0
  0
LINE
  5
2AA
330
1F
100
AcDbEntity
  8
0
  6
Continuous
 62
     7
370
    15
100
AcDbLine
 10
3840.0205442858
 20
5380.3896816685
 30
0.0
 11
3839.726032148
 21
5380.3896816685
 31
0.0
  0
LINE
  5
2AB
330
1F
100
AcDbEntity
  8
0
  6
Continuous
 62
     7
370
    15
100
AcDbLine
 10
3840.0205442858
 20
2380.3896816685
 30
0.0
 11
3839.726032148
 21
2380.3896816685
 31
0.0
  0
LINE
  5
2AC
330
1F
100
AcDbEntity
  8
0
  6
Continuous
 62
     7
370
    15
100
AcDbLine
 10
3815.0877714333
 20
2380.3896816685
 30
0.0
 11
3815.0877714333
 21
5380.3896816685
 31
0.0
  0
LINE
  5
2AD
330
1F
100
AcDbEntity
  8
0
  6
Continuous
 62
     7
370
    15
100
AcDbLine
 10
3815.0877714333
 20
5380.3896816685
 30
0.0
 11
3815.1166675788
 21
5380.3896816685
 31
0.0
  0
LINE
  5
2AE
330
1F
100
AcDbEntity
  8
0
  6
Continuous
 62
     7
370
    15
100
AcDbLine
 10
3815.0877714333
 20
2380.3896816685
 30
0.0
 11
3815.1166675788
 21
2380.3896816685
 31
0.0
  0
LINE
  5
2AF
330
1F
100
AcDbEntity
  8
0
  6
Continuous
 62
     7
370
    15
100
AcDbLine
 10
3840.0494404313
 20
2380.3896816685
 30
0.0
 11
3840.0494404313
 21
5380.3896816685
 31
0.0
  0
LINE
  5
2B0
330
1F
100
AcDbEntity
  8
0
  6
Continuous
 62
     7
370
    15
100
AcDbLine
 10
3840.0205442858
 20
5380.3896816685
 30
0.0
 11
3840.0494404313
 21
5380.3896816685
 31
0.0
  0
LINE
  5
2B1
330
1F
100
AcDbEntity
  8
0
  6
Continuous
 62
     7
370
    15
100
AcDbLine
 10
3840.0205442858
 20
2380.3896816685
 30
0.0
 11
3840.0494404313
 21
2380.3896816685
 31
0.0
  0
LINE
  5
2B2
330
1F
100
AcDbEntity
  8
0
  6
Continuous
 62
     7
370
    15
100
AcDbLine
 10
3815.0719175291
 20
2380.3896816685
 30
0.0
 11
3815.0719175291
 21
5380.3896816685
 31
0.0
  0
LINE
  5
2B3
330
1F
100
AcDbEntity
  8
0
  6
Continuous
 62
     7
370
    15
100
AcDbLine
 10
3815.0719175291
 20
5380.3896816685
 30
0.0
 11
3815.0877714333
 21
5380.3896816685
 31
0.0
  0
LINE
  5
2B4
330
1F
100
AcDbEntity
  8
0
  6
Continuous
 62
     7
370
    15
100
AcDbLine
 10
3815.0719175291
 20
2380.3896816685
 30
0.0
 11
3815.0877714333
 21
2380.3896816685
 31
0.0
  0
LINE
  5
2B5
330
1F
100
AcDbEntity
  8
0
  6
Continuous
 62
     7
370
    15
100
AcDbLine
 10
3840.0652943355
 20
2380.3896816685
 30
0.0
 11
3840.0652943355
 21
5380.3896816685
 31
0.0
  0
LINE
  5
2B6
330
1F
100
AcDbEntity
  8
0
  6
Continuous
 62
     7
370
    15
100
AcDbLine
 10
3840.0494404313
 20
5380.3896816685
 30
0.0
 11
3840.0652943355
 21
5380.3896816685
 31
0.0
  0
LINE
  5
2B7
330
1F
100
AcDbEntity
  8
0
  6
Continuous
 62
     7
370
    15
100
AcDbLine
 10
3840.0494404313
 20
2380.3896816685
 30
0.0
 11
3840.0652943355
 21
2380.3896816685
 31
0.0
  0
LINE
  5
2B8
330
1F
100
AcDbEntity
  8
0
  6
Continuous
 62
     7
370
    15
100
AcDbLine
 10
3815.0691533637
 20
2380.3896816685
 30
0.0
 11
3815.0691533637
 21
5380.3896816685
 31
0.0
  0
LINE
  5
2B9
330
1F
100
AcDbEntity
  8
0
  6
Continuous
 62
     7
370
    15
100
AcDbLine
 10
3815.0719175291
 20
5380.3896816685
 30
0.0
 11
3815.0686159906
 21
5380.3896816685
 31
0.0
  0
LINE
  5
2BA
330
1F
100
AcDbEntity
  8
0
  6
Continuous
 62
     7
370
    15
100
AcDbLine
 10
3815.0719175291
 20
2380.3896816685
 30
0.0
 11
3815.0686159906
 21
2380.3896816685
 31
0.0
  0
LINE
  5
2BB
330
1F
100
AcDbEntity
  8
0
  6
Continuous
 62
     7
370
    15
100
AcDbLine
 10
3840.0680585009
 20
2380.3896816685
 30
0.0
 11
3840.0680585009
 21
5380.3896816685
 31
0.0
  0
LINE
  5
2BC
330
1F
100
AcDbEntity
  8
0
  6
Continuous
 62
     7
370
    15
100
AcDbLine
 10
3840.0652943355
 20
5380.3896816685
 30
0.0
 11
3840.068595874
 21
5380.3896816685
 31
0.0
  0
LINE
  5
2BD
330
1F
100
AcDbEntity
  8
0
  6
Continuous
 62
     7
370
    15
100
AcDbLine
 10
3840.0652943355
 20
2380.3896816685
 30
0.0
 11
3840.068595874
 21
2380.3896816685
 31
0.0
  0
ARC
  5
2BE
330
1F
100
AcDbEntity
  8
0
  6
Continuous
 62
     7
370
    15
100
AcDbCircle
 10
9263.2406425667
 20
4062.1260577728
 30
0.0
 40
4.070876890516061
100
AcDbArc
 50
78.0333021541
 51
81.3899602169
  0
ARC
  5
2BF
330
1F
100
AcDbEntity
  8
0
  6
Continuous
 62
     7
370
    15
100
AcDbCircle
 10
9263.1758109513
 20
4061.8335143032
 30
0.0
 40
4.370506152338884
100
AcDbArc
 50
71.5939306532
 51
77.9970430296
  0
ARC
  5
2C0
330
1F
100
AcDbEntity
  8
0
  6
Continuous
 62
     7
370
    15
100
AcDbCircle
 10
9263.0861992557
 20
4061.5546766824
 30
0.0
 40
4.663374984407871
100
AcDbArc
 50
68.5648566043
 51
71.6309796226
  0
ARC
  5
2C1
330
1F
100
AcDbEntity
  8
0
  6
Continuous
 62
     7
370
    15
100
AcDbCircle
 10
9263.0193592366
 20
4061.3842012691
 30
0.0
 40
4.846485464906908
100
AcDbArc
 50
65.5773719614
 51
68.5658383869
  0
ARC
  5
2C2
330
1F
100
AcDbEntity
  8
0
  6
Continuous
 62
     7
370
    15
100
AcDbCircle
 10
9262.9488375245
 20
4061.228651973
 30
0.0
 40
5.0172744728265
100
AcDbArc
 50
62.6583363449
 51
65.5785434255
  0
LINE
  5
2C3
330
1F
100
AcDbEntity
  8
0
  6
Continuous
 62
     7
370
    15
100
AcDbLine
 10
9265.2532496497
 20
4065.6854140143
 30
0.0
 11
9266.7121234819
 21
4064.9313395836
 31
0.0
  0
ARC
  5
2C4
330
1F
100
AcDbEntity
  8
0
  6
Continuous
 62
     7
370
    15
100
AcDbCircle
 10
9269.0407407787
 20
4069.4362960477
 30
0.0
 40
5.07120215109584
100
AcDbArc
 50
242.6655043317
 51
243.8999121288
  0
ARC
  5
2C5
330
1F
100
AcDbEntity
  8
0
  6
Continuous
 62
     7
370
    15
100
AcDbCircle
 10
9269.0092017073
 20
4069.3722244282
 30
0.0
 40
4.999788798760598
100
AcDbArc
 50
243.9014618297
 51
245.1477907617
  0
LINE
  5
2C6
330
1F
100
AcDbEntity
  8
0
  6
Continuous
 62
     7
370
    15
100
AcDbLine
 10
9266.9078949908
 20
4064.8354416347
 30
0.0
 11
9268.1396086745
 21
4064.2650007701
 31
0.0
  0
ARC
  5
2C7
330
1F
100
AcDbEntity
  8
0
  6
Continuous
 62
     7
370
    15
100
AcDbCircle
 10
9266.0196976641
 20
4059.6893103941
 30
0.0
 40
5.042912363814358
100
AcDbArc
 50
62.1475442779
 51
65.1417759354
  0
ARC
  5
2C8
330
1F
100
AcDbEntity
  8
0
  6
Continuous
 62
     7
370
    15
100
AcDbCircle
 10
9265.9464352489
 20
4059.5504493937
 30
0.0
 40
5.199914749721657
100
AcDbArc
 50
59.2152621178
 51
62.1486474204
  0
ARC
  5
2C9
330
1F
100
AcDbEntity
  8
0
  6
Continuous
 62
     7
370
    15
100
AcDbCircle
 10
9265.8774921529
 20
4059.4346090083
 30
0.0
 40
5.334718836745383
100
AcDbArc
 50
56.3321539885
 51
59.2159063118
  0
ARC
  5
2CA
330
1F
100
AcDbEntity
  8
0
  6
Continuous
 62
     7
370
    15
100
AcDbCircle
 10
9265.8163942256
 20
4059.3427478387
 30
0.0
 40
5.445043020533716
100
AcDbArc
 50
53.488143532
 51
56.3329544645
  0
ARC
  5
2CB
330
1F
100
AcDbEntity
  8
0
  6
Continuous
 62
     7
370
    15
100
AcDbCircle
 10
9265.7660252045
 20
4059.2745103133
 30
0.0
 40
5.529856843749772
100
AcDbArc
 50
50.6736615955
 51
53.4893589257
  0
ARC
  5
2CC
330
1F
100
AcDbEntity
  8
0
  6
Continuous
 62
     7
370
    15
100
AcDbCircle
 10
9265.7298719945
 20
4059.2301847295
 30
0.0
 40
5.587056464732428
100
AcDbArc
 50
47.8784882979
 51
50.6749379803
  0
ARC
  5
2CD
330
1F
100
AcDbEntity
  8
0
  6
Continuous
 62
     7
370
    15
100
AcDbCircle
 10
9265.7101695146
 20
4059.2082507773
 30
0.0
 40
5.616539960663138
100
AcDbArc
 50
45.0930454667
 51
47.8794820121
  0
ARC
  5
2CE
330
1F
100
AcDbEntity
  8
0
  6
Continuous
 62
     7
370
    15
100
AcDbCircle
 10
9265.7108562918
 20
4059.2088908913
 30
0.0
 40
5.615601761846587
100
AcDbArc
 50
42.30675132
 51
45.0933976681
  0
ARC
  5
2CF
330
1F
100
AcDbEntity
  8
0
  6
Continuous
 62
     7
370
    15
100
AcDbCircle
 10
9229.9545618794
 20
4026.6668115637
 30
0.0
 40
53.96329578097595
100
AcDbArc
 50
41.5155546151
 51
42.3056930132
  0
ARC
  5
2D0
330
1F
100
AcDbEntity
  8
0
  6
Continuous
 62
     7
370
    15
100
AcDbCircle
 10
9230.041769222
 20
4026.7441746766
 30
0.0
 40
53.84671895527217
100
AcDbArc
 50
40.7241009851
 51
41.5154220721
  0
ARC
  5
2D1
330
1F
100
AcDbEntity
  8
0
  6
Continuous
 62
     7
370
    15
100
AcDbCircle
 10
9230.1481300299
 20
4026.8356177075
 30
0.0
 40
53.70645334605887
100
AcDbArc
 50
39.9314512015
 51
40.7241976541
  0
ARC
  5
2D2
330
1F
100
AcDbEntity
  8
0
  6
Continuous
 62
     7
370
    15
100
AcDbCircle
 10
9230.2656262197
 20
4026.9337809022
 30
0.0
 40
53.55334767514074
100
AcDbArc
 50
39.1373465232
 51
39.9316058523
  0
ARC
  5
2D3
330
1F
100
AcDbEntity
  8
0
  6
Continuous
 62
     7
370
    15
100
AcDbCircle
 10
9230.3919911968
 20
4027.0364912515
 30
0.0
 40
53.39050568264455
100
AcDbArc
 50
38.3416321447
 51
39.1374468409
  0
ARC
  5
2D4
330
1F
100
AcDbEntity
  8
0
  6
Continuous
 62
     7
370
    15
100
AcDbCircle
 10
9230.5435338279
 20
4027.156479532
 30
0.0
 40
53.19721226229678
100
AcDbArc
 50
37.543797077
 51
38.3415238245
  0
ARC
  5
2D5
330
1F
100
AcDbEntity
  8
0
  6
Continuous
 62
     7
370
    15
100
AcDbCircle
 10
9230.7257088791
 20
4027.2965098773
 30
0.0
 40
52.96743792393837
100
AcDbArc
 50
36.7436871162
 51
37.5437789502
  0
ARC
  5
2D6
330
1F
100
AcDbEntity
  8
0
  6
Continuous
 62
     7
370
    15
100
AcDbCircle
 10
9230.9201221945
 20
4027.4414255716
 30
0.0
 40
52.72495686765632
100
AcDbArc
 50
35.9413206477
 51
36.7438841335
  0
ARC
  5
2D7
330
1F
100
AcDbEntity
  8
0
  6
Continuous
 62
     7
370
    15
100
AcDbCircle
 10
9269.231965675
 20
4055.2173846296
 30
0.0
 40
5.403701077954107
100
AcDbArc
 50
32.8943236293
 51
35.9354859571
  0
ARC
  5
2D8
330
1F
100
AcDbEntity
  8
0
  6
Continuous
 62
     7
370
    15
100
AcDbCircle
 10
9269.340670511
 20
4055.2875936102
 30
0.0
 40
5.274294605533765
100
AcDbArc
 50
29.7923226436
 51
32.8952362931
  0
ARC
  5
2D9
330
1F
100
AcDbEntity
  8
0
  6
Continuous
 62
     7
370
    15
100
AcDbCircle
 10
9269.4768652592
 20
4055.3654511493
 30
0.0
 40
5.117416324463956
100
AcDbArc
 50
26.6271798992
 51
29.7934662253
  0
ARC
  5
2DA
330
1F
100
AcDbEntity
  8
0
  6
Continuous
 62
     7
370
    15
100
AcDbCircle
 10
9269.6355200192
 20
4055.4448192691
 30
0.0
 40
4.940016758175179
100
AcDbArc
 50
23.3873157546
 51
26.6289883592
  0
ARC
  5
2DB
330
1F
100
AcDbEntity
  8
0
  6
Continuous
 62
     7
370
    15
100
AcDbCircle
 10
9269.8143267581
 20
4055.5220086748
 30
0.0
 40
4.745260405261514
100
AcDbArc
 50
20.0591396871
 51
23.3888693517
  0
ARC
  5
2DC
330
1F
100
AcDbEntity
  8
0
  6
Continuous
 62
     7
370
    15
100
AcDbCircle
 10
9270.0090714748
 20
4055.5930114028
 30
0.0
 40
4.537975862538307
100
AcDbArc
 50
16.6302666627
 51
20.0604001478
  0
ARC
  5
2DD
330
1F
100
AcDbEntity
  8
0
  6
Continuous
 62
     7
370
    15
100
AcDbCircle
 10
9270.2176008662
 20
4055.6552360622
 30
0.0
 40
4.320360578696899
100
AcDbArc
 50
13.0864829288
 51
16.6310369284
  0
ARC
  5
2DE
330
1F
100
AcDbEntity
  8
0
  6
Continuous
 62
     7
370
    15
100
AcDbCircle
 10
9270.4332829238
 20
4055.7052643951
 30
0.0
 40
4.098952421237067
100
AcDbArc
 50
9.4167527216
 51
13.0879645065
  0
ARC
  5
2DF
330
1F
100
AcDbEntity
  8
0
  6
Continuous
 62
     7
370
    15
100
AcDbCircle
 10
9301.2619105213
 20
4060.8120041407
 30
0.0
 40
27.14977676837648
100
AcDbArc
 50
189.4039115704
 51
191.1350661166
  0
ARC
  5
2E0
330
1F
100
AcDbEntity
  8
0
  6
Continuous
 62
     7
370
    15
100
AcDbCircle
 10
9301.9449345487
 20
4060.9464011568
 30
0.0
 40
27.84589771930351
100
AcDbArc
 50
191.1349830669
 51
192.8371460835
  0
ARC
  5
2E1
330
1F
100
AcDbEntity
  8
0
  6
Continuous
 62
     7
370
    15
100
AcDbCircle
 10
9302.622481429
 20
4061.1007833551
 30
0.0
 40
28.54081040308144
100
AcDbArc
 50
192.8371173377
 51
194.5115321826
  0
ARC
  5
2E2
330
1F
100
AcDbEntity
  8
0
  6
Continuous
 62
     7
370
    15
100
AcDbCircle
 10
9303.2923005901
 20
4061.2741297752
 30
0.0
 40
29.23269672995794
100
AcDbArc
 50
194.5114858175
 51
196.159357051
  0
ARC
  5
2E3
330
1F
100
AcDbEntity
  8
0
  6
Continuous
 62
     7
370
    15
100
AcDbCircle
 10
9271.0724775614
 20
4051.9376662254
 30
0.0
 40
4.312594285369084
100
AcDbArc
 50
13.300734487
 51
16.1659785116
  0
ARC
  5
2E4
330
1F
100
AcDbEntity
  8
0
  6
Continuous
 62
     7
370
    15
100
AcDbCircle
 10
9271.2449019726
 20
4051.9784048081
 30
0.0
 40
4.135422591272113
100
AcDbArc
 50
10.3548264107
 51
13.3010466892
  0
ARC
  5
2E5
330
1F
100
AcDbEntity
  8
0
  6
Continuous
 62
     7
370
    15
100
AcDbCircle
 10
9271.4216315272
 20
4052.0107032392
 30
0.0
 40
3.955765907399984
100
AcDbArc
 50
7.3197015746
 51
10.3547338054
  0
ARC
  5
2E6
330
1F
100
AcDbEntity
  8
0
  6
Continuous
 62
     7
370
    15
100
AcDbCircle
 10
9271.5984473607
 20
4052.0333205109
 30
0.0
 40
3.777509433056031
100
AcDbArc
 50
4.1908319349
 51
7.3211331445
  0
ARC
  5
2E7
330
1F
100
AcDbEntity
  8
0
  6
Continuous
 62
     7
370
    15
100
AcDbCircle
 10
9271.7690801744
 20
4052.045725005
 30
0.0
 40
3.606426358337228
100
AcDbArc
 50
0.9641204081
 51
4.1923933628
  0
ARC
  5
2E8
330
1F
100
AcDbEntity
  8
0
  6
Continuous
 62
     7
370
    15
100
AcDbCircle
 10
9271.9345958758
 20
4052.0484477499
 30
0.0
 40
3.440888276232973
100
AcDbArc
 50
357.634193085
 51
0.9651636933
  0
ARC
  5
2E9
330
1F
100
AcDbEntity
  8
0
  6
Continuous
 62
     7
370
    15
100
AcDbCircle
 10
9272.0907568625
 20
4052.0419826512
 30
0.0
 40
3.284593519118536
100
AcDbArc
 50
354.1990014992
 51
357.6344261026
  0
ARC
  5
2EA
330
1F
100
AcDbEntity
  8
0
  6
Continuous
 62
     7
370
    15
100
AcDbCircle
 10
9272.237679354
 20
4052.0271022519
 30
0.0
 40
3.136919409699085
100
AcDbArc
 50
350.6557231743
 51
354.1981650675
  0
LINE
  5
2EB
330
1F
100
AcDbEntity
  8
0
  6
Continuous
 62
     7
370
    15
100
AcDbLine
 10
9275.3329735312
 20
4051.5177719667
 30
0.0
 11
9275.0725016595
 21
4049.9371502541
 31
0.0
  0
ARC
  5
2EC
330
1F
100
AcDbEntity
  8
0
  6
Continuous
 62
     7
370
    15
100
AcDbCircle
 10
9272.1059457955
 20
4050.4254330115
 30
0.0
 40
3.006471976523875
100
AcDbArc
 50
347.3568510781
 51
350.6531592387
  0
ARC
  5
2ED
330
1F
100
AcDbEntity
  8
0
  6
Continuous
 62
     7
370
    15
100
AcDbCircle
 10
9272.2155717466
 20
4050.4008806316
 30
0.0
 40
2.894130234332901
100
AcDbArc
 50
343.9752763262
 51
347.3561050245
  0
ARC
  5
2EE
330
1F
100
AcDbEntity
  8
0
  6
Continuous
 62
     7
370
    15
100
AcDbCircle
 10
9272.3144371197
 20
4050.3725385807
 30
0.0
 40
2.791282623163887
100
AcDbArc
 50
340.5104682795
 51
343.9742245018
  0
ARC
  5
2EF
330
1F
100
AcDbEntity
  8
0
  6
Continuous
 62
     7
370
    15
100
AcDbCircle
 10
9272.3998244398
 20
4050.3423106847
 30
0.0
 40
2.700702713272248
100
AcDbArc
 50
336.9696679286
 51
340.5106325961
  0
ARC
  5
2F0
330
1F
100
AcDbEntity
  8
0
  6
Continuous
 62
     7
370
    15
100
AcDbCircle
 10
9272.4705744746
 20
4050.3122619942
 30
0.0
 40
2.623836006695248
100
AcDbArc
 50
333.3597759918
 51
336.9691227059
  0
ARC
  5
2F1
330
1F
100
AcDbEntity
  8
0
  6
Continuous
 62
     7
370
    15
100
AcDbCircle
 10
9272.5285356673
 20
4050.2832795853
 30
0.0
 40
2.5590326676176
100
AcDbArc
 50
329.6880285545
 51
333.3579086586
  0
ARC
  5
2F2
330
1F
100
AcDbEntity
  8
0
  6
Continuous
 62
     7
370
    15
100
AcDbCircle
 10
9272.5735678799
 20
4050.2570586361
 30
0.0
 40
2.506922882220488
100
AcDbArc
 50
325.9653312189
 51
329.685929726
  0
ARC
  5
2F3
330
1F
100
AcDbEntity
  8
0
  6
Continuous
 62
     7
370
    15
100
AcDbCircle
 10
9272.6071209047
 20
4050.2344438233
 30
0.0
 40
2.466460137355649
100
AcDbArc
 50
322.2023361027
 51
325.9644353043
  0
LINE
  5
2F4
330
1F
100
AcDbEntity
  8
0
  6
Continuous
 62
     7
370
    15
100
AcDbLine
 10
9274.5560683799
 20
4048.7228124701
 30
0.0
 11
9272.5069472108
 21
4046.0811461216
 31
0.0
  0
ARC
  5
2F5
330
1F
100
AcDbEntity
  8
0
  6
Continuous
 62
     7
370
    15
100
AcDbCircle
 10
9270.5776777253
 20
4047.5775168018
 30
0.0
 40
2.441558100977733
100
AcDbArc
 50
317.5973566493
 51
322.2023016976
  0
ARC
  5
2F6
330
1F
100
AcDbEntity
  8
0
  6
Continuous
 62
     7
370
    15
100
AcDbCircle
 10
9270.5857335105
 20
4047.5703707878
 30
0.0
 40
2.430790701183897
100
AcDbArc
 50
312.9749005795
 51
317.5936909176
  0
ARC
  5
2F7
330
1F
100
AcDbEntity
  8
0
  6
Continuous
 62
     7
370
    15
100
AcDbCircle
 10
9270.5796458634
 20
4047.5770530712
 30
0.0
 40
2.439829626503666
100
AcDbArc
 50
308.3645734814
 51
312.9725258438
  0
ARC
  5
2F8
330
1F
100
AcDbEntity
  8
0
  6
Continuous
 62
     7
370
    15
100
AcDbCircle
 10
9270.5607588435
 20
4047.6010050387
 30
0.0
 40
2.47033229908975
100
AcDbArc
 50
303.7935403624
 51
308.3632464059
  0
ARC
  5
2F9
330
1F
100
AcDbEntity
  8
0
  6
Continuous
 62
     7
370
    15
100
AcDbCircle
 10
9270.532938279
 20
4047.6427498997
 30
0.0
 40
2.520498101631436
100
AcDbArc
 50
299.2824755279
 51
303.7913042155
  0
ARC
  5
2FA
330
1F
100
AcDbEntity
  8
0
  6
Continuous
 62
     7
370
    15
100
AcDbCircle
 10
9270.4984199774
 20
4047.7045073722
 30
0.0
 40
2.591247582259125
100
AcDbArc
 50
294.8544633355
 51
299.2802857676
  0
ARC
  5
2FB
330
1F
100
AcDbEntity
  8
0
  6
Continuous
 62
     7
370
    15
100
AcDbCircle
 10
9270.461570307
 20
4047.7843397361
 30
0.0
 40
2.679174205365165
100
AcDbArc
 50
290.5229601251
 51
294.8519370441
  0
ARC
  5
2FC
330
1F
100
AcDbEntity
  8
0
  6
Continuous
 62
     7
370
    15
100
AcDbCircle
 10
9270.4239241809
 20
4047.8849940602
 30
0.0
 40
2.786638259109417
100
AcDbArc
 50
286.3054975297
 51
290.5223253703
  0
LINE
  5
2FD
330
1F
100
AcDbEntity
  8
0
  6
Continuous
 62
     7
370
    15
100
AcDbLine
 10
9271.2062973972
 20
4045.2104389687
 30
0.0
 11
9268.7352139375
 21
4044.4869035543
 31
0.0
  0
ARC
  5
2FE
330
1F
100
AcDbEntity
  8
0
  6
Continuous
 62
     7
370
    15
100
AcDbCircle
 10
9267.9139510472
 20
4047.2960049156
 30
0.0
 40
2.926691509768167
100
AcDbArc
 50
281.2631783097
 51
286.296696072
  0
ARC
  5
2FF
330
1F
100
AcDbEntity
  8
0
  6
Continuous
 62
     7
370
    15
100
AcDbCircle
 10
9267.8791138536
 20
4047.4710669969
 30
0.0
 40
3.105186220359952
100
AcDbArc
 50
276.4242573243
 51
281.2626955088
  0
ARC
  5
300
330
1F
100
AcDbEntity
  8
0
  6
Continuous
 62
     7
370
    15
100
AcDbCircle
 10
9267.8568247287
 20
4047.6690312456
 30
0.0
 40
3.304401302216939
100
AcDbArc
 50
271.782215669
 51
276.4242401966
  0
ARC
  5
301
330
1F
100
AcDbEntity
  8
0
  6
Continuous
 62
     7
370
    15
100
AcDbCircle
 10
9267.8500280295
 20
4047.8861820972
 30
0.0
 40
3.521658490840333
100
AcDbArc
 50
267.3338278809
 51
271.7828649515
  0
LINE
  5
302
330
1F
100
AcDbEntity
  8
0
  6
Continuous
 62
     7
370
    15
100
AcDbLine
 10
9265.1831232528
 20
4044.4838624748
 30
0.0
 11
9267.686212133
 21
4044.3683357563
 31
0.0
  0
ARC
  5
303
330
1F
100
AcDbEntity
  8
0
  6
Continuous
 62
     7
370
    15
100
AcDbCircle
 10
9265.3556628834
 20
4048.2040380337
 30
0.0
 40
3.724174554629815
100
AcDbArc
 50
264.0549372067
 51
267.3445571793
  0
ARC
  5
304
330
1F
100
AcDbEntity
  8
0
  6
Continuous
 62
     7
370
    15
100
AcDbCircle
 10
9265.3747004393
 20
4048.3873252668
 30
0.0
 40
3.908447819392804
100
AcDbArc
 50
260.8707535217
 51
264.0556522809
  0
ARC
  5
305
330
1F
100
AcDbEntity
  8
0
  6
Continuous
 62
     7
370
    15
100
AcDbCircle
 10
9265.4041861392
 20
4048.5707406505
 30
0.0
 40
4.094218132825945
100
AcDbArc
 50
257.7828410778
 51
260.8705976435
  0
ARC
  5
306
330
1F
100
AcDbEntity
  8
0
  6
Continuous
 62
     7
370
    15
100
AcDbCircle
 10
9265.4650419259
 20
4048.840574209
 30
0.0
 40
4.370819448277231
100
AcDbArc
 50
251.8392796113
 51
257.7516940716
  0
ARC
  5
307
330
1F
100
AcDbEntity
  8
0
  6
Continuous
 62
     7
370
    15
100
AcDbCircle
 10
9265.5474176952
 20
4049.0997860196
 30
0.0
 40
4.642794728096359
100
AcDbArc
 50
249.030932218
 51
251.8703755458
  0
ARC
  5
308
330
1F
100
AcDbEntity
  8
0
  6
Continuous
 62
     7
370
    15
100
AcDbCircle
 10
9265.6082315863
 20
4049.2585333239
 30
0.0
 40
4.812791891147105
100
AcDbArc
 50
246.2588367805
 51
249.0312121174
  0
ARC
  5
309
330
1F
100
AcDbEntity
  8
0
  6
Continuous
 62
     7
370
    15
100
AcDbCircle
 10
9265.6722273922
 20
4049.4042738937
 30
0.0
 40
4.971964024226157
100
AcDbArc
 50
243.5468104491
 51
246.2599417619
  0
LINE
  5
30A
330
1F
100
AcDbEntity
  8
0
  6
Continuous
 62
     7
370
    15
100
AcDbLine
 10
9263.45738395
 20
4044.9528814391
 30
0.0
 11
9260.9542950698
 21
4046.1979257683
 31
0.0
  0
ARC
  5
30B
330
1F
100
AcDbEntity
  8
0
  6
Continuous
 62
     7
370
    15
100
AcDbCircle
 10
9263.2452810008
 20
4050.8016731923
 30
0.0
 40
5.142286153060412
100
AcDbArc
 50
240.087139786
 51
243.5434541396
  0
ARC
  5
30C
330
1F
100
AcDbEntity
  8
0
  6
Continuous
 62
     7
370
    15
100
AcDbCircle
 10
9263.3270642467
 20
4050.94410531
 30
0.0
 40
5.306528012840227
100
AcDbArc
 50
236.7038218579
 51
240.0886503086
  0
ARC
  5
30D
330
1F
100
AcDbEntity
  8
0
  6
Continuous
 62
     7
370
    15
100
AcDbCircle
 10
9263.4005563657
 20
4051.0562785988
 30
0.0
 40
5.440632136203842
100
AcDbArc
 50
233.3765238406
 51
236.7054172727
  0
ARC
  5
30E
330
1F
100
AcDbEntity
  8
0
  6
Continuous
 62
     7
370
    15
100
AcDbCircle
 10
9263.4591045844
 20
4051.1352979674
 30
0.0
 40
5.538978119325133
100
AcDbArc
 50
230.0887289158
 51
233.3780762421
  0
LINE
  5
30F
330
1F
100
AcDbEntity
  8
0
  6
Continuous
 62
     7
370
    15
100
AcDbLine
 10
9257.4342098056
 20
4048.9533972759
 30
0.0
 11
9259.9052932653
 21
4046.8866859923
 31
0.0
  0
ARC
  5
310
330
1F
100
AcDbEntity
  8
0
  6
Continuous
 62
     7
370
    15
100
AcDbCircle
 10
9261.0241032836
 20
4053.2454504781
 30
0.0
 40
5.595449568547934
100
AcDbArc
 50
227.4415353003
 51
230.0907307091
  0
ARC
  5
311
330
1F
100
AcDbEntity
  8
0
  6
Continuous
 62
     7
370
    15
100
AcDbCircle
 10
9261.0395583171
 20
4053.2623546326
 30
0.0
 40
5.618353849925902
100
AcDbArc
 50
224.8001258294
 51
227.4420350706
  0
ARC
  5
312
330
1F
100
AcDbEntity
  8
0
  6
Continuous
 62
     7
370
    15
100
AcDbCircle
 10
9261.0362651669
 20
4053.2591220073
 30
0.0
 40
5.613739308704369
100
AcDbArc
 50
222.1570194846
 51
224.8003983405
  0
ARC
  5
313
330
1F
100
AcDbEntity
  8
0
  6
Continuous
 62
     7
370
    15
100
AcDbCircle
 10
9261.0122718101
 20
4053.2375135713
 30
0.0
 40
5.581450016091805
100
AcDbArc
 50
219.5041476242
 51
222.1578918502
  0
ARC
  5
314
330
1F
100
AcDbEntity
  8
0
  6
Continuous
 62
     7
370
    15
100
AcDbCircle
 10
9260.9689057184
 20
4053.2018425045
 30
0.0
 40
5.52529808981921
100
AcDbArc
 50
216.833274891
 51
219.5048073367
  0
ARC
  5
315
330
1F
100
AcDbEntity
  8
0
  6
Continuous
 62
     7
370
    15
100
AcDbCircle
 10
9260.9024709611
 20
4053.1521711941
 30
0.0
 40
5.442347436000603
100
AcDbArc
 50
214.135257624
 51
216.8340201007
  0
ARC
  5
316
330
1F
100
AcDbEntity
  8
0
  6
Continuous
 62
     7
370
    15
100
AcDbCircle
 10
9260.8158969519
 20
4053.0935669694
 30
0.0
 40
5.337803145140482
100
AcDbArc
 50
211.4023278353
 51
214.1360440371
  0
ARC
  5
317
330
1F
100
AcDbEntity
  8
0
  6
Continuous
 62
     7
370
    15
100
AcDbCircle
 10
9260.7080204866
 20
4053.0277448072
 30
0.0
 40
5.211431122752587
100
AcDbArc
 50
208.6249625533
 51
211.402627459
  0
LINE
  5
318
330
1F
100
AcDbEntity
  8
0
  6
Continuous
 62
     7
370
    15
100
AcDbLine
 10
9254.0844388229
 20
4054.2865623306
 30
0.0
 11
9256.133559992
 21
4050.5310819284
 31
0.0
  0
ARC
  5
319
330
1F
100
AcDbEntity
  8
0
  6
Continuous
 62
     7
370
    15
100
AcDbCircle
 10
9258.5406483271
 20
4056.7185513287
 30
0.0
 40
5.076649843351221
100
AcDbArc
 50
206.2988295501
 51
208.6236301279
  0
ARC
  5
31A
330
1F
100
AcDbEntity
  8
0
  6
Continuous
 62
     7
370
    15
100
AcDbCircle
 10
9258.4252881579
 20
4056.6615951488
 30
0.0
 40
4.947995373857534
100
AcDbArc
 50
203.934848845
 51
206.2994050206
  0
ARC
  5
31B
330
1F
100
AcDbEntity
  8
0
  6
Continuous
 62
     7
370
    15
100
AcDbCircle
 10
9258.2970390858
 20
4056.6046778828
 30
0.0
 40
4.80768357960566
100
AcDbArc
 50
201.5246407562
 51
203.9349386839
  0
ARC
  5
31C
330
1F
100
AcDbEntity
  8
0
  6
Continuous
 62
     7
370
    15
100
AcDbCircle
 10
9258.1585299487
 20
4056.5500514677
 30
0.0
 40
4.658791584206524
100
AcDbArc
 50
199.0632037892
 51
201.5246705829
  0
ARC
  5
31D
330
1F
100
AcDbEntity
  8
0
  6
Continuous
 62
     7
370
    15
100
AcDbCircle
 10
9258.0110081156
 20
4056.4991329325
 30
0.0
 40
4.502729464553691
100
AcDbArc
 50
196.5455853244
 51
199.0639182087
  0
ARC
  5
31E
330
1F
100
AcDbEntity
  8
0
  6
Continuous
 62
     7
370
    15
100
AcDbCircle
 10
9257.8595871047
 20
4056.4542392043
 30
0.0
 40
4.344793523107261
100
AcDbArc
 50
193.9678511942
 51
196.5467267334
  0
ARC
  5
31F
330
1F
100
AcDbEntity
  8
0
  6
Continuous
 62
     7
370
    15
100
AcDbCircle
 10
9257.7046949149
 20
4056.4157165789
 30
0.0
 40
4.185182799371283
100
AcDbArc
 50
191.3241790301
 51
193.9679047963
  0
ARC
  5
320
330
1F
100
AcDbEntity
  8
0
  6
Continuous
 62
     7
370
    15
100
AcDbCircle
 10
9257.5451624727
 20
4056.3837742441
 30
0.0
 40
4.022483958439057
100
AcDbArc
 50
188.6094966164
 51
191.3242545898
  0
LINE
  5
321
330
1F
100
AcDbEntity
  8
0
  6
Continuous
 62
     7
370
    15
100
AcDbLine
 10
9253.3075336716
 20
4057.5038144228
 30
0.0
 11
9253.5680055433
 21
4055.7816115129
 31
0.0
  0
ARC
  5
322
330
1F
100
AcDbEntity
  8
0
  6
Continuous
 62
     7
370
    15
100
AcDbCircle
 10
9257.1180328971
 20
4058.0809193786
 30
0.0
 40
3.853953097475686
100
AcDbArc
 50
185.5239532788
 51
188.6120702778
  0
ARC
  5
323
330
1F
100
AcDbEntity
  8
0
  6
Continuous
 62
     7
370
    15
100
AcDbCircle
 10
9256.944691487
 20
4058.0641353366
 30
0.0
 40
3.67980101420566
100
AcDbArc
 50
182.3388496406
 51
185.5236430072
  0
ARC
  5
324
330
1F
100
AcDbEntity
  8
0
  6
Continuous
 62
     7
370
    15
100
AcDbCircle
 10
9256.7749266998
 20
4058.0572279967
 30
0.0
 40
3.509895765359035
100
AcDbArc
 50
179.0521192566
 51
182.3392805119
  0
ARC
  5
325
330
1F
100
AcDbEntity
  8
0
  6
Continuous
 62
     7
370
    15
100
AcDbCircle
 10
9256.6136916922
 20
4058.0599532098
 30
0.0
 40
3.348637739299553
100
AcDbArc
 50
175.6611856769
 51
179.0531039126
  0
ARC
  5
326
330
1F
100
AcDbEntity
  8
0
  6
Continuous
 62
     7
370
    15
100
AcDbCircle
 10
9256.4614051727
 20
4058.0715822171
 30
0.0
 40
3.19590787314145
100
AcDbArc
 50
172.1630761493
 51
175.6625223571
  0
ARC
  5
327
330
1F
100
AcDbEntity
  8
0
  6
Continuous
 62
     7
370
    15
100
AcDbCircle
 10
9256.3230837868
 20
4058.0906717974
 30
0.0
 40
3.05627544423365
100
AcDbArc
 50
168.5593668211
 51
172.1640249194
  0
ARC
  5
328
330
1F
100
AcDbEntity
  8
0
  6
Continuous
 62
     7
370
    15
100
AcDbCircle
 10
9256.1972596485
 20
4058.1160767484
 30
0.0
 40
2.927912202324672
100
AcDbArc
 50
164.8492905296
 51
168.5582444245
  0
ARC
  5
329
330
1F
100
AcDbEntity
  8
0
  6
Continuous
 62
     7
370
    15
100
AcDbCircle
 10
9256.0845665553
 20
4058.1465446263
 30
0.0
 40
2.811173079537727
100
AcDbArc
 50
161.0370523315
 51
164.8483840391
  0
ARC
  5
32A
330
1F
100
AcDbEntity
  8
0
  6
Continuous
 62
     7
370
    15
100
AcDbCircle
 10
9235.706021839
 20
4065.1514887124
 30
0.0
 40
18.73770919878017
100
AcDbArc
 50
341.02899538
 51
343.2456462644
  0
ARC
  5
32B
330
1F
100
AcDbEntity
  8
0
  6
Continuous
 62
     7
370
    15
100
AcDbCircle
 10
9235.2969742878
 20
4065.2745589386
 30
0.0
 40
19.164869794979
100
AcDbArc
 50
343.2458552762
 51
345.4294658739
  0
ARC
  5
32C
330
1F
100
AcDbEntity
  8
0
  6
Continuous
 62
     7
370
    15
100
AcDbCircle
 10
9234.8527951794
 20
4065.389941894
 30
0.0
 40
19.62379059621136
100
AcDbArc
 50
345.4296725501
 51
347.5791059191
  0
ARC
  5
32D
330
1F
100
AcDbEntity
  8
0
  6
Continuous
 62
     7
370
    15
100
AcDbCircle
 10
9234.375781094
 20
4065.4949602765
 30
0.0
 40
20.11222820401033
100
AcDbArc
 50
347.5792237216
 51
349.693729867
  0
ARC
  5
32E
330
1F
100
AcDbEntity
  8
0
  6
Continuous
 62
     7
370
    15
100
AcDbCircle
 10
9257.0671533204
 20
4061.3695018353
 30
0.0
 40
2.951114688840839
100
AcDbArc
 50
165.139208501
 51
169.7095473867
  0
ARC
  5
32F
330
1F
100
AcDbEntity
  8
0
  6
Continuous
 62
     7
370
    15
100
AcDbCircle
 10
9256.9274515197
 20
4061.4065402457
 30
0.0
 40
2.806586366221079
100
AcDbArc
 50
160.4127500698
 51
165.1385965256
  0
ARC
  5
330
330
1F
100
AcDbEntity
  8
0
  6
Continuous
 62
     7
370
    15
100
AcDbCircle
 10
9256.8120576439
 20
4061.4474938319
 30
0.0
 40
2.68414073719506
100
AcDbArc
 50
155.5423301593
 51
160.4105903238
  0
ARC
  5
331
330
1F
100
AcDbEntity
  8
0
  6
Continuous
 62
     7
370
    15
100
AcDbCircle
 10
9256.7206057079
 20
4061.4889817858
 30
0.0
 40
2.583718145232338
100
AcDbArc
 50
150.5460650522
 51
155.5401596822
  0
ARC
  5
332
330
1F
100
AcDbEntity
  8
0
  6
Continuous
 62
     7
370
    15
100
AcDbCircle
 10
9256.6549586079
 20
4061.5259469301
 30
0.0
 40
2.508379212695159
100
AcDbArc
 50
145.4503341316
 51
150.5439457181
  0
ARC
  5
333
330
1F
100
AcDbEntity
  8
0
  6
Continuous
 62
     7
370
    15
100
AcDbCircle
 10
9256.6135124001
 20
4061.5543528828
 30
0.0
 40
2.458133076495897
100
AcDbArc
 50
140.2850796629
 51
145.4477968404
  0
ARC
  5
334
330
1F
100
AcDbEntity
  8
0
  6
Continuous
 62
     7
370
    15
100
AcDbCircle
 10
9256.5945961796
 20
4061.5698563369
 30
0.0
 40
2.433675883772982
100
AcDbArc
 50
135.0843464593
 51
140.2812871143
  0
ARC
  5
335
330
1F
100
AcDbEntity
  8
0
  6
Continuous
 62
     7
370
    15
100
AcDbCircle
 10
9256.5945587666
 20
4061.5696808031
 30
0.0
 40
2.433773332831839
100
AcDbArc
 50
129.9041068642
 51
135.0807982205
  0
ARC
  5
336
330
1F
100
AcDbEntity
  8
0
  6
Continuous
 62
     7
370
    15
100
AcDbCircle
 10
9270.15843194
 20
4045.3400378612
 30
0.0
 40
23.58513171500401
100
AcDbArc
 50
128.5167576754
 51
129.8888416223
  0
ARC
  5
337
330
1F
100
AcDbEntity
  8
0
  6
Continuous
 62
     7
370
    15
100
AcDbCircle
 10
9270.2131877186
 20
4045.2711313163
 30
0.0
 40
23.67314479644485
100
AcDbArc
 50
127.1479705777
 51
128.5165912673
  0
ARC
  5
338
330
1F
100
AcDbEntity
  8
0
  6
Continuous
 62
     7
370
    15
100
AcDbCircle
 10
9270.2749810217
 20
4045.1894174607
 30
0.0
 40
23.77559262848798
100
AcDbArc
 50
125.7830712094
 51
127.1477515725
  0
ARC
  5
339
330
1F
100
AcDbEntity
  8
0
  6
Continuous
 62
     7
370
    15
100
AcDbCircle
 10
9270.3465341065
 20
4045.0899837143
 30
0.0
 40
23.89809530202078
100
AcDbArc
 50
124.4228933729
 51
125.782845317
  0
ARC
  5
33A
330
1F
100
AcDbEntity
  8
0
  6
Continuous
 62
     7
370
    15
100
AcDbCircle
 10
9270.4251924243
 20
4044.9748140997
 30
0.0
 40
24.03756258371425
100
AcDbArc
 50
123.06773611
 51
124.4223672695
  0
ARC
  5
33B
330
1F
100
AcDbEntity
  8
0
  6
Continuous
 62
     7
370
    15
100
AcDbCircle
 10
9270.506003593
 20
4044.8503789223
 30
0.0
 40
24.18593552049981
100
AcDbArc
 50
121.7181428657
 51
123.0673245833
  0
ARC
  5
33C
330
1F
100
AcDbEntity
  8
0
  6
Continuous
 62
     7
370
    15
100
AcDbCircle
 10
9270.5934728406
 20
4044.7087513787
 30
0.0
 40
24.35239640914655
100
AcDbArc
 50
120.3749165407
 51
121.7180154349
  0
ARC
  5
33D
330
1F
100
AcDbEntity
  8
0
  6
Continuous
 62
     7
370
    15
100
AcDbCircle
 10
9270.6895826118
 20
4044.5446830539
 30
0.0
 40
24.54254240915866
100
AcDbArc
 50
119.0387091657
 51
120.3748117737
  0
ARC
  5
33E
330
1F
100
AcDbEntity
  8
0
  6
Continuous
 62
     7
370
    15
100
AcDbCircle
 10
9260.0371274629
 20
4063.7304971422
 30
0.0
 40
2.597833251243858
100
AcDbArc
 50
114.3673604496
 51
119.0264891722
  0
ARC
  5
33F
330
1F
100
AcDbEntity
  8
0
  6
Continuous
 62
     7
370
    15
100
AcDbCircle
 10
9260.0765918313
 20
4063.6430186323
 30
0.0
 40
2.693801507379802
100
AcDbArc
 50
109.8165354656
 51
114.3643075433
  0
ARC
  5
340
330
1F
100
AcDbEntity
  8
0
  6
Continuous
 62
     7
370
    15
100
AcDbCircle
 10
9260.1157325081
 20
4063.5341254474
 30
0.0
 40
2.80951542195204
100
AcDbArc
 50
105.3923599146
 51
109.8146401835
  0
ARC
  5
341
330
1F
100
AcDbEntity
  8
0
  6
Continuous
 62
     7
370
    15
100
AcDbCircle
 10
9260.1515839445
 20
4063.4037052251
 30
0.0
 40
2.944773535677859
100
AcDbArc
 50
101.1055265949
 51
105.3913550338
  0
ARC
  5
342
330
1F
100
AcDbEntity
  8
0
  6
Continuous
 62
     7
370
    15
100
AcDbCircle
 10
9260.1810021445
 20
4063.2536464095
 30
0.0
 40
3.097688797665413
100
AcDbArc
 50
96.9612708967
 51
101.1048514017
  0
ARC
  5
343
330
1F
100
AcDbEntity
  8
0
  6
Continuous
 62
     7
370
    15
100
AcDbCircle
 10
9260.2014126165
 20
4063.0866886936
 30
0.0
 40
3.265889468509182
100
AcDbArc
 50
92.9614675214
 51
96.961709551
  0
ARC
  5
344
330
1F
100
AcDbEntity
  8
0
  6
Continuous
 62
     7
370
    15
100
AcDbCircle
 10
9260.2108732253
 20
4062.9038799836
 30
0.0
 40
3.448942814799003
100
AcDbArc
 50
89.1044415408
 51
92.9615220365
  0
ARC
  5
345
330
1F
100
AcDbEntity
  8
0
  6
Continuous
 62
     7
370
    15
100
AcDbCircle
 10
9260.2079067549
 20
4062.7116879266
 30
0.0
 40
3.641157760484691
100
AcDbArc
 50
85.3846106122
 51
89.1050366092
  0
LINE
  5
346
330
1F
100
AcDbEntity
  8
0
  6
Continuous
 62
     7
370
    15
100
AcDbLine
 10
9261.732612212
 20
4066.2419726011
 30
0.0
 11
9260.5008985283
 21
4066.3410385101
 31
0.0
  0
ARC
  5
347
330
1F
100
AcDbEntity
  8
0
  6
Continuous
 62
     7
370
    15
100
AcDbCircle
 10
9262.0293966253
 20
4069.9295872664
 30
0.0
 40
3.699538201908074
100
AcDbArc
 50
265.3986726614
 51
266.9227045337
  0
ARC
  5
348
330
1F
100
AcDbEntity
  8
0
  6
Continuous
 62
     7
370
    15
100
AcDbCircle
 10
9262.0249033472
 20
4069.8453941454
 30
0.0
 40
3.615225272552766
100
AcDbArc
 50
266.9221823192
 51
268.4701300764
  0
LINE
  5
349
330
1F
100
AcDbEntity
  8
0
  6
Continuous
 62
     7
370
    15
100
AcDbLine
 10
9263.3872575531
 20
4066.1925506828
 30
0.0
 11
9261.9283837209
 21
4066.2314575476
 31
0.0
  0
ARC
  5
34A
330
1F
100
AcDbEntity
  8
0
  6
Continuous
 62
     7
370
    15
100
AcDbCircle
 10
9263.288319445
 20
4062.52094575
 30
0.0
 40
3.672937725049548
100
AcDbArc
 50
84.8611935128
 51
88.4564339991
  0
ARC
  5
34B
330
1F
100
AcDbEntity
  8
0
  6
Continuous
 62
     7
370
    15
100
AcDbCircle
 10
9263.2707330191
 20
4062.3248873202
 30
0.0
 40
3.869783320238124
100
AcDbArc
 50
81.3897358337
 51
84.8618597448
  0
LINE
  5
34C
330
1F
100
AcDbEntity
  8
0
  6
Continuous
 62
     7
370
    15
100
AcDbLine
 10
10669.9500513996
 20
5429.5157709498
 30
0.0
 11
9269.8638846094
 21
4062.9887505369
 31
0.0
  0
ARC
  5
34D
330
1F
100
AcDbEntity
  8
0
  6
Continuous
 62
     7
370
    15
100
AcDbCircle
 10
10630.0407286594
 20
5393.1938319675
 30
0.0
 40
53.96329579453582
100
AcDbArc
 50
41.5155546151
 51
42.305693013
  0
LINE
  5
34E
330
1F
100
AcDbEntity
  8
0
  6
Continuous
 62
     7
370
    15
100
AcDbLine
 10
10670.4471389408
 20
5428.9619644486
 30
0.0
 11
9270.3609721506
 21
4062.4349440358
 31
0.0
  0
ARC
  5
34F
330
1F
100
AcDbEntity
  8
0
  6
Continuous
 62
     7
370
    15
100
AcDbCircle
 10
10630.1279360164
 20
5393.2711950931
 30
0.0
 40
53.84671894961647
100
AcDbArc
 50
40.7241009851
 51
41.5154220721
  0
LINE
  5
350
330
1F
100
AcDbEntity
  8
0
  6
Continuous
 62
     7
370
    15
100
AcDbLine
 10
10670.9362087949
 20
5428.401723334
 30
0.0
 11
9270.8500420047
 21
4061.8747029211
 31
0.0
  0
ARC
  5
351
330
1F
100
AcDbEntity
  8
0
  6
Continuous
 62
     7
370
    15
100
AcDbCircle
 10
10630.2342967947
 20
5393.3626380986
 30
0.0
 40
53.70645337951062
100
AcDbArc
 50
39.9314512019
 51
40.724197654
  0
LINE
  5
352
330
1F
100
AcDbEntity
  8
0
  6
Continuous
 62
     7
370
    15
100
AcDbLine
 10
10671.4170995208
 20
5427.8352343777
 30
0.0
 11
9271.3309327306
 21
4061.3082139649
 31
0.0
  0
ARC
  5
353
330
1F
100
AcDbEntity
  8
0
  6
Continuous
 62
     7
370
    15
100
AcDbCircle
 10
10630.3517929954
 20
5393.4608013032
 30
0.0
 40
53.5533476938729
100
AcDbArc
 50
39.1373465232
 51
39.931605852
  0
LINE
  5
354
330
1F
100
AcDbEntity
  8
0
  6
Continuous
 62
     7
370
    15
100
AcDbLine
 10
10671.8896521487
 20
5427.2626844783
 30
0.0
 11
9271.8034853585
 21
4060.7356640654
 31
0.0
  0
LINE
  5
355
330
1F
100
AcDbEntity
  8
0
  6
Continuous
 62
     7
370
    15
100
AcDbLine
 10
10669.7613750579
 20
5429.7132089493
 30
0.0
 11
9269.6752082677
 21
4063.1861885365
 31
0.0
  0
ARC
  5
356
330
1F
100
AcDbEntity
  8
0
  6
Continuous
 62
     7
370
    15
100
AcDbCircle
 10
10665.797023083
 20
5425.735911305
 30
0.0
 40
5.615601760479796
100
AcDbArc
 50
42.30675132
 51
45.0933976688
  0
LINE
  5
357
330
1F
100
AcDbEntity
  8
0
  6
Continuous
 62
     7
370
    15
100
AcDbLine
 10
10669.5633063096
 20
5429.9012594417
 30
0.0
 11
9269.4771395194
 21
4063.3742390289
 31
0.0
  0
ARC
  5
358
330
1F
100
AcDbEntity
  8
0
  6
Continuous
 62
     7
370
    15
100
AcDbCircle
 10
10665.7963363031
 20
5425.7352711883
 30
0.0
 40
5.616539963162043
100
AcDbArc
 50
45.0930454671
 51
47.8794820113
  0
LINE
  5
359
330
1F
100
AcDbEntity
  8
0
  6
Continuous
 62
     7
370
    15
100
AcDbLine
 10
10669.356664303
 20
5430.0791457804
 30
0.0
 11
9269.2704975128
 21
4063.5521253676
 31
0.0
  0
ARC
  5
35A
330
1F
100
AcDbEntity
  8
0
  6
Continuous
 62
     7
370
    15
100
AcDbCircle
 10
10665.816038782
 20
5425.7572051393
 30
0.0
 40
5.587056468775452
100
AcDbArc
 50
47.8784882988
 51
50.6749379792
  0
ARC
  5
35B
330
1F
100
AcDbEntity
  8
0
  6
Continuous
 62
     7
370
    15
100
AcDbCircle
 10
10630.4781579573
 20
5393.5635116405
 30
0.0
 40
53.39050572070233
100
AcDbArc
 50
38.341632145
 51
39.1374468407
  0
LINE
  5
35C
330
1F
100
AcDbEntity
  8
0
  6
Continuous
 62
     7
370
    15
100
AcDbLine
 10
10672.3537101796
 20
5426.6842638541
 30
0.0
 11
9272.2675433894
 21
4060.1572434413
 31
0.0
  0
LINE
  5
35D
330
1F
100
AcDbEntity
  8
0
  6
Continuous
 62
     7
370
    15
100
AcDbLine
 10
10669.142302369
 20
5430.2461331197
 30
0.0
 11
9269.0561355788
 21
4063.7191127069
 31
0.0
  0
ARC
  5
35E
330
1F
100
AcDbEntity
  8
0
  6
Continuous
 62
     7
370
    15
100
AcDbCircle
 10
10665.8521919932
 20
5425.8015307242
 30
0.0
 40
5.52985684612058
100
AcDbArc
 50
50.6736615964
 51
53.4893589254
  0
LINE
  5
35F
330
1F
100
AcDbEntity
  8
0
  6
Continuous
 62
     7
370
    15
100
AcDbLine
 10
10668.9211067859
 20
5430.4015311457
 30
0.0
 11
9268.8349399957
 21
4063.8745107329
 31
0.0
  0
ARC
  5
360
330
1F
100
AcDbEntity
  8
0
  6
Continuous
 62
     7
370
    15
100
AcDbCircle
 10
10665.9025610161
 20
5425.869768252
 30
0.0
 40
5.445043019984367
100
AcDbArc
 50
53.4881435318
 51
56.3329544646
  0
ARC
  5
361
330
1F
100
AcDbEntity
  8
0
  6
Continuous
 62
     7
370
    15
100
AcDbCircle
 10
10630.6297006123
 20
5393.6834999405
 30
0.0
 40
53.19721226960085
100
AcDbArc
 50
37.5437970769
 51
38.3415238243
  0
LINE
  5
362
330
1F
100
AcDbEntity
  8
0
  6
Continuous
 62
     7
370
    15
100
AcDbLine
 10
10672.8091195855
 20
5426.1001624512
 30
0.0
 11
9272.7229527953
 21
4059.5731420384
 31
0.0
  0
LINE
  5
363
330
1F
100
AcDbEntity
  8
0
  6
Continuous
 62
     7
370
    15
100
AcDbLine
 10
10668.6939914249
 20
5430.544697128
 30
0.0
 11
9268.6078246347
 21
4064.0176767151
 31
0.0
  0
ARC
  5
364
330
1F
100
AcDbEntity
  8
0
  6
Continuous
 62
     7
370
    15
100
AcDbCircle
 10
10665.9636589442
 20
5425.9616294228
 30
0.0
 40
5.334718834684153
100
AcDbArc
 50
56.332153988
 51
59.2159063124
  0
ARC
  5
365
330
1F
100
AcDbEntity
  8
0
  6
Continuous
 62
     7
370
    15
100
AcDbCircle
 10
10630.8118756678
 20
5393.823530289
 30
0.0
 40
52.96743792573911
100
AcDbArc
 50
36.7436871163
 51
37.5437789502
  0
LINE
  5
366
330
1F
100
AcDbEntity
  8
0
  6
Continuous
 62
     7
370
    15
100
AcDbLine
 10
10673.2557288097
 20
5425.510575132
 30
0.0
 11
9273.1695620195
 21
4058.9835547192
 31
0.0
  0
LINE
  5
367
330
1F
100
AcDbEntity
  8
0
  6
Continuous
 62
     7
370
    15
100
AcDbLine
 10
10668.461894456
 20
5430.675040008
 30
0.0
 11
9268.3757276658
 21
4064.1480195952
 31
0.0
  0
ARC
  5
368
330
1F
100
AcDbEntity
  8
0
  6
Continuous
 62
     7
370
    15
100
AcDbCircle
 10
10666.032602039
 20
5426.0774698063
 30
0.0
 40
5.199914749952113
100
AcDbArc
 50
59.2152621178
 51
62.1486474203
  0
LINE
  5
369
330
1F
100
AcDbEntity
  8
0
  6
Continuous
 62
     7
370
    15
100
AcDbLine
 10
10666.9940617809
 20
5431.3624620476
 30
0.0
 11
9266.9078949908
 21
4064.8354416347
 31
0.0
  0
LINE
  5
36A
330
1F
100
AcDbEntity
  8
0
  6
Continuous
 62
     7
370
    15
100
AcDbLine
 10
10666.9940617809
 20
5431.3624620476
 30
0.0
 11
10668.2257754647
 21
5430.7920211829
 31
0.0
  0
LINE
  5
36B
330
1F
100
AcDbEntity
  8
0
  6
Continuous
 62
     7
370
    15
100
AcDbLine
 10
10668.2257754647
 20
5430.7920211829
 30
0.0
 11
9268.1396086745
 21
4064.2650007701
 31
0.0
  0
ARC
  5
36C
330
1F
100
AcDbEntity
  8
0
  6
Continuous
 62
     7
370
    15
100
AcDbCircle
 10
10631.0062889657
 20
5393.9684459704
 30
0.0
 40
52.72495689123193
100
AcDbArc
 50
35.9413206479
 51
36.7438841333
  0
LINE
  5
36D
330
1F
100
AcDbEntity
  8
0
  6
Continuous
 62
     7
370
    15
100
AcDbLine
 10
10673.6933920611
 20
5424.9156963896
 30
0.0
 11
9273.6072252709
 21
4058.3886759768
 31
0.0
  0
ARC
  5
36E
330
1F
100
AcDbEntity
  8
0
  6
Continuous
 62
     7
370
    15
100
AcDbCircle
 10
10666.105864454
 20
5426.2163308063
 30
0.0
 40
5.042912364435961
100
AcDbArc
 50
62.1475442781
 51
65.1417759352
  0
ARC
  5
36F
330
1F
100
AcDbEntity
  8
0
  6
Continuous
 62
     7
370
    15
100
AcDbCircle
 10
10669.3181324662
 20
5421.744405043
 30
0.0
 40
5.403701076825693
100
AcDbArc
 50
32.8943236289
 51
35.9354859573
  0
LINE
  5
370
330
1F
100
AcDbEntity
  8
0
  6
Continuous
 62
     7
370
    15
100
AcDbLine
 10
10673.8554779996
 20
5424.6791078965
 30
0.0
 11
9273.7693112094
 21
4058.1520874837
 31
0.0
  0
ARC
  5
371
330
1F
100
AcDbEntity
  8
0
  6
Continuous
 62
     7
370
    15
100
AcDbCircle
 10
10669.4268373019
 20
5421.8146140235
 30
0.0
 40
5.274294604775656
100
AcDbArc
 50
29.7923226434
 51
32.8952362933
  0
LINE
  5
372
330
1F
100
AcDbEntity
  8
0
  6
Continuous
 62
     7
370
    15
100
AcDbLine
 10
10674.0040391361
 20
5424.4351878055
 30
0.0
 11
9273.9178723459
 21
4057.9081673927
 31
0.0
  0
ARC
  5
373
330
1F
100
AcDbEntity
  8
0
  6
Continuous
 62
     7
370
    15
100
AcDbCircle
 10
10669.5630320531
 20
5421.8924715641
 30
0.0
 40
5.117416320266466
100
AcDbArc
 50
26.6271798979
 51
29.7934662266
  0
LINE
  5
374
330
1F
100
AcDbEntity
  8
0
  6
Continuous
 62
     7
370
    15
100
AcDbLine
 10
10674.1377040458
 20
5424.1860116127
 30
0.0
 11
9274.0515372556
 21
4057.6589911999
 31
0.0
  0
LINE
  5
375
330
1F
100
AcDbEntity
  8
0
  6
Continuous
 62
     7
370
    15
100
AcDbLine
 10
10665.3394164399
 20
5432.2124344271
 30
0.0
 11
9265.2532496497
 21
4065.6854140143
 31
0.0
  0
LINE
  5
376
330
1F
100
AcDbEntity
  8
0
  6
Continuous
 62
     7
370
    15
100
AcDbLine
 10
10665.3394164399
 20
5432.2124344271
 30
0.0
 11
10666.7982902721
 21
5431.4583599965
 31
0.0
  0
LINE
  5
377
330
1F
100
AcDbEntity
  8
0
  6
Continuous
 62
     7
370
    15
100
AcDbLine
 10
10666.7982902721
 20
5431.4583599965
 30
0.0
 11
9266.7121234819
 21
4064.9313395836
 31
0.0
  0
ARC
  5
378
330
1F
100
AcDbEntity
  8
0
  6
Continuous
 62
     7
370
    15
100
AcDbCircle
 10
10669.7216868073
 20
5421.9718396809
 30
0.0
 40
4.940016760459022
100
AcDbArc
 50
23.3873157557
 51
26.6289883587
  0
LINE
  5
379
330
1F
100
AcDbEntity
  8
0
  6
Continuous
 62
     7
370
    15
100
AcDbLine
 10
10674.2558442619
 20
5423.9327531851
 30
0.0
 11
9274.1696774717
 21
4057.4057327722
 31
0.0
  0
ARC
  5
37A
330
1F
100
AcDbEntity
  8
0
  6
Continuous
 62
     7
370
    15
100
AcDbCircle
 10
10669.9004935449
 20
5422.0490290863
 30
0.0
 40
4.745260408965877
100
AcDbArc
 50
20.0591396881
 51
23.38886935
  0
LINE
  5
37B
330
1F
100
AcDbEntity
  8
0
  6
Continuous
 62
     7
370
    15
100
AcDbLine
 10
10674.3579021542
 20
5423.6766054558
 30
0.0
 11
9274.271735364
 21
4057.149585043
 31
0.0
  0
LINE
  5
37C
330
1F
100
AcDbEntity
  8
0
  6
Continuous
 62
     7
370
    15
100
AcDbLine
 10
10666.89588012
 20
5431.4092405081
 30
0.0
 11
9266.8097133298
 21
4064.8822200953
 31
0.0
  0
ARC
  5
37D
330
1F
100
AcDbEntity
  8
0
  6
Continuous
 62
     7
370
    15
100
AcDbCircle
 10
10669.0953684957
 20
5435.8992448373
 30
0.0
 40
4.999788794667632
100
AcDbArc
 50
243.9014618293
 51
245.1477907624
  0
ARC
  5
37E
330
1F
100
AcDbEntity
  8
0
  6
Continuous
 62
     7
370
    15
100
AcDbCircle
 10
10669.1269075678
 20
5435.9633164583
 30
0.0
 40
5.071202148712484
100
AcDbArc
 50
242.6655043314
 51
243.8999121291
  0
ARC
  5
37F
330
1F
100
AcDbEntity
  8
0
  6
Continuous
 62
     7
370
    15
100
AcDbCircle
 10
10670.0952382655
 20
5422.1200318158
 30
0.0
 40
4.537975862051436
100
AcDbArc
 50
16.6302666625
 51
20.0604001479
  0
LINE
  5
380
330
1F
100
AcDbEntity
  8
0
  6
Continuous
 62
     7
370
    15
100
AcDbLine
 10
10674.4433975179
 20
5423.41877584
 30
0.0
 11
9274.3572307277
 21
4056.8917554272
 31
0.0
  0
ARC
  5
381
330
1F
100
AcDbEntity
  8
0
  6
Continuous
 62
     7
370
    15
100
AcDbCircle
 10
10670.3037676544
 20
5422.1822564745
 30
0.0
 40
4.320360580781066
100
AcDbArc
 50
13.0864829301
 51
16.631036928
  0
LINE
  5
382
330
1F
100
AcDbEntity
  8
0
  6
Continuous
 62
     7
370
    15
100
AcDbLine
 10
10674.5119259269
 20
5423.1604790983
 30
0.0
 11
9274.4257591367
 21
4056.6334586854
 31
0.0
  0
ARC
  5
383
330
1F
100
AcDbEntity
  8
0
  6
Continuous
 62
     7
370
    15
100
AcDbCircle
 10
10670.519449712
 20
5422.2322848075
 30
0.0
 40
4.098952423228765
100
AcDbArc
 50
9.416752722
 51
13.0879645052
  0
LINE
  5
384
330
1F
100
AcDbEntity
  8
0
  6
Continuous
 62
     7
370
    15
100
AcDbLine
 10
10674.5631661466
 20
5422.9029325278
 30
0.0
 11
9274.4769993564
 21
4056.375912115
 31
0.0
  0
ARC
  5
385
330
1F
100
AcDbEntity
  8
0
  6
Continuous
 62
     7
370
    15
100
AcDbCircle
 10
10701.3480773203
 20
5427.3390245551
 30
0.0
 40
27.14977677733526
100
AcDbArc
 50
189.4039115706
 51
191.1350661161
  0
LINE
  5
386
330
1F
100
AcDbEntity
  8
0
  6
Continuous
 62
     7
370
    15
100
AcDbLine
 10
10674.7094045095
 20
5422.0957917794
 30
0.0
 11
9274.6232377193
 21
4055.5687713666
 31
0.0
  0
LINE
  5
387
330
1F
100
AcDbEntity
  8
0
  6
Continuous
 62
     7
370
    15
100
AcDbLine
 10
10665.1093735709
 20
5432.3240457642
 30
0.0
 11
9265.0232067807
 21
4065.7970253514
 31
0.0
  0
ARC
  5
388
330
1F
100
AcDbEntity
  8
0
  6
Continuous
 62
     7
370
    15
100
AcDbCircle
 10
10663.035004315
 20
5427.7556723864
 30
0.0
 40
5.017274472178313
100
AcDbArc
 50
62.6583363447
 51
65.5785434257
  0
LINE
  5
389
330
1F
100
AcDbEntity
  8
0
  6
Continuous
 62
     7
370
    15
100
AcDbLine
 10
10664.8765861534
 20
5432.4225149986
 30
0.0
 11
9264.7904193632
 21
4065.8954945858
 31
0.0
  0
ARC
  5
38A
330
1F
100
AcDbEntity
  8
0
  6
Continuous
 62
     7
370
    15
100
AcDbCircle
 10
10663.1055260271
 20
5427.9112216828
 30
0.0
 40
4.846485463970717
100
AcDbArc
 50
65.5773719611
 51
68.5658383872
  0
LINE
  5
38B
330
1F
100
AcDbEntity
  8
0
  6
Continuous
 62
     7
370
    15
100
AcDbLine
 10
10664.6419630911
 20
5432.507457004
 30
0.0
 11
9264.5557963009
 21
4065.9804365912
 31
0.0
  0
ARC
  5
38C
330
1F
100
AcDbEntity
  8
0
  6
Continuous
 62
     7
370
    15
100
AcDbCircle
 10
10663.1723660465
 20
5428.0816970968
 30
0.0
 40
4.663374982707157
100
AcDbArc
 50
68.5648566037
 51
71.6309796232
  0
ARC
  5
38D
330
1F
100
AcDbEntity
  8
0
  6
Continuous
 62
     7
370
    15
100
AcDbCircle
 10
10702.0311013382
 20
5427.4734215696
 30
0.0
 40
27.84589771871153
100
AcDbArc
 50
191.1349830671
 51
192.8371460838
  0
LINE
  5
38E
330
1F
100
AcDbEntity
  8
0
  6
Continuous
 62
     7
370
    15
100
AcDbLine
 10
10674.8811974999
 20
5421.2866016007
 30
0.0
 11
9274.7950307097
 21
4054.7595811879
 31
0.0
  0
LINE
  5
38F
330
1F
100
AcDbEntity
  8
0
  6
Continuous
 62
     7
370
    15
100
AcDbLine
 10
10664.1708776921
 20
5432.6354879213
 30
0.0
 11
9264.0847109019
 21
4066.1084675085
 31
0.0
  0
ARC
  5
390
330
1F
100
AcDbEntity
  8
0
  6
Continuous
 62
     7
370
    15
100
AcDbCircle
 10
10663.2619777416
 20
5428.3605347162
 30
0.0
 40
4.370506152185443
100
AcDbArc
 50
71.5939306531
 51
77.9970430297
  0
LINE
  5
391
330
1F
100
AcDbEntity
  8
0
  6
Continuous
 62
     7
370
    15
100
AcDbLine
 10
10663.9362546297
 20
5432.6780769579
 30
0.0
 11
9263.8500878396
 21
4066.1510565451
 31
0.0
  0
ARC
  5
392
330
1F
100
AcDbEntity
  8
0
  6
Continuous
 62
     7
370
    15
100
AcDbCircle
 10
10663.3268093568
 20
5428.6530781853
 30
0.0
 40
4.070876890792656
100
AcDbArc
 50
78.0333021541
 51
81.3899602167
  0
LINE
  5
393
330
1F
100
AcDbEntity
  8
0
  6
Continuous
 62
     7
370
    15
100
AcDbLine
 10
10663.7034672123
 20
5432.7061409876
 30
0.0
 11
9263.6173004221
 21
4066.1791205748
 31
0.0
  0
ARC
  5
394
330
1F
100
AcDbEntity
  8
0
  6
Continuous
 62
     7
370
    15
100
AcDbCircle
 10
10663.3568998091
 20
5428.8519077318
 30
0.0
 40
3.869783321417443
100
AcDbArc
 50
81.3897358343
 51
84.8618597443
  0
ARC
  5
395
330
1F
100
AcDbEntity
  8
0
  6
Continuous
 62
     7
370
    15
100
AcDbCircle
 10
10702.7086482088
 20
5427.6278037653
 30
0.0
 40
28.54081039229425
100
AcDbArc
 50
192.8371173373
 51
194.5115321828
  0
LINE
  5
396
330
1F
100
AcDbEntity
  8
0
  6
Continuous
 62
     7
370
    15
100
AcDbLine
 10
10675.0783688504
 20
5420.4761941265
 30
0.0
 11
9274.9922020602
 21
4053.9491737136
 31
0.0
  0
LINE
  5
397
330
1F
100
AcDbEntity
  8
0
  6
Continuous
 62
     7
370
    15
100
AcDbLine
 10
10663.4734243433
 20
5432.7195710956
 30
0.0
 11
9263.3872575531
 21
4066.1925506828
 31
0.0
  0
ARC
  5
398
330
1F
100
AcDbEntity
  8
0
  6
Continuous
 62
     7
370
    15
100
AcDbCircle
 10
10663.3744862351
 20
5429.0479661622
 30
0.0
 40
3.67293772567406
100
AcDbArc
 50
84.8611935131
 51
88.4564339988
  0
LINE
  5
399
330
1F
100
AcDbEntity
  8
0
  6
Continuous
 62
     7
370
    15
100
AcDbLine
 10
10662.014550511
 20
5432.7584779604
 30
0.0
 11
9261.9283837209
 21
4066.2314575476
 31
0.0
  0
LINE
  5
39A
330
1F
100
AcDbEntity
  8
0
  6
Continuous
 62
     7
370
    15
100
AcDbLine
 10
10663.4734243433
 20
5432.7195710956
 30
0.0
 11
10662.014550511
 21
5432.7584779604
 31
0.0
  0
ARC
  5
39B
330
1F
100
AcDbEntity
  8
0
  6
Continuous
 62
     7
370
    15
100
AcDbCircle
 10
10703.3784673985
 20
5427.8011501929
 30
0.0
 40
29.23269674886204
100
AcDbArc
 50
194.5114858179
 51
196.1593570503
  0
LINE
  5
39C
330
1F
100
AcDbEntity
  8
0
  6
Continuous
 62
     7
370
    15
100
AcDbLine
 10
10675.3007151125
 20
5419.6654027919
 30
0.0
 11
9275.2145483223
 21
4053.1383823791
 31
0.0
  0
ARC
  5
39D
330
1F
100
AcDbEntity
  8
0
  6
Continuous
 62
     7
370
    15
100
AcDbCircle
 10
10671.1586443547
 20
5418.464686639
 30
0.0
 40
4.312594282074925
100
AcDbArc
 50
13.3007344864
 51
16.1659785133
  0
LINE
  5
39E
330
1F
100
AcDbEntity
  8
0
  6
Continuous
 62
     7
370
    15
100
AcDbLine
 10
10675.3555572785
 20
5419.4568516214
 30
0.0
 11
9275.2693904883
 21
4052.9298312086
 31
0.0
  0
ARC
  5
39F
330
1F
100
AcDbEntity
  8
0
  6
Continuous
 62
     7
370
    15
100
AcDbCircle
 10
10671.3310687651
 20
5418.5054252214
 30
0.0
 40
4.135422588927152
100
AcDbArc
 50
10.3548264098
 51
13.30104669
  0
LINE
  5
3A0
330
1F
100
AcDbEntity
  8
0
  6
Continuous
 62
     7
370
    15
100
AcDbLine
 10
10675.3991397586
 20
5419.2487410231
 30
0.0
 11
9275.3129729684
 21
4052.7217206103
 31
0.0
  0
ARC
  5
3A1
330
1F
100
AcDbEntity
  8
0
  6
Continuous
 62
     7
370
    15
100
AcDbCircle
 10
10671.5077983168
 20
5418.5377236519
 30
0.0
 40
3.955765907974123
100
AcDbArc
 50
7.3197015748
 51
10.3547338052
  0
LINE
  5
3A2
330
1F
100
AcDbEntity
  8
0
  6
Continuous
 62
     7
370
    15
100
AcDbLine
 10
10675.4313274694
 20
5419.0417106628
 30
0.0
 11
9275.3451606792
 21
4052.51469025
 31
0.0
  0
ARC
  5
3A3
330
1F
100
AcDbEntity
  8
0
  6
Continuous
 62
     7
370
    15
100
AcDbCircle
 10
10671.684614151
 20
5418.5603409237
 30
0.0
 40
3.777509432999328
100
AcDbArc
 50
4.1908319349
 51
7.3211331445
  0
LINE
  5
3A4
330
1F
100
AcDbEntity
  8
0
  6
Continuous
 62
     7
370
    15
100
AcDbLine
 10
10675.452023217
 20
5418.8363960736
 30
0.0
 11
9275.3658564268
 21
4052.3093756608
 31
0.0
  0
LINE
  5
3A5
330
1F
100
AcDbEntity
  8
0
  6
Continuous
 62
     7
370
    15
100
AcDbLine
 10
10661.9169606632
 20
5432.7624041312
 30
0.0
 11
9261.830793873
 21
4066.2353837183
 31
0.0
  0
ARC
  5
3A6
330
1F
100
AcDbEntity
  8
0
  6
Continuous
 62
     7
370
    15
100
AcDbCircle
 10
10662.1110701376
 20
5436.3724145655
 30
0.0
 40
3.6152252798772
100
AcDbArc
 50
266.922182321
 51
268.470130075
  0
LINE
  5
3A7
330
1F
100
AcDbEntity
  8
0
  6
Continuous
 62
     7
370
    15
100
AcDbLine
 10
10661.8187790022
 20
5432.7689930139
 30
0.0
 11
9261.732612212
 21
4066.2419726011
 31
0.0
  0
ARC
  5
3A8
330
1F
100
AcDbEntity
  8
0
  6
Continuous
 62
     7
370
    15
100
AcDbCircle
 10
10662.1155634157
 20
5436.4566076815
 30
0.0
 40
3.699538204201557
100
AcDbArc
 50
265.3986726613
 51
266.9227045327
  0
ARC
  5
3A9
330
1F
100
AcDbEntity
  8
0
  6
Continuous
 62
     7
370
    15
100
AcDbCircle
 10
10671.8552469667
 20
5418.5727454179
 30
0.0
 40
3.606426356256938
100
AcDbArc
 50
0.9641204072
 51
4.1923933638
  0
LINE
  5
3AA
330
1F
100
AcDbEntity
  8
0
  6
Continuous
 62
     7
370
    15
100
AcDbLine
 10
10675.4611627543
 20
5418.6334281627
 30
0.0
 11
9275.3749959641
 21
4052.1064077498
 31
0.0
  0
LINE
  5
3AB
330
1F
100
AcDbEntity
  8
0
  6
Continuous
 62
     7
370
    15
100
AcDbLine
 10
10660.5870653185
 20
5432.8680589229
 30
0.0
 11
9260.5008985283
 21
4066.3410385101
 31
0.0
  0
LINE
  5
3AC
330
1F
100
AcDbEntity
  8
0
  6
Continuous
 62
     7
370
    15
100
AcDbLine
 10
10661.8187790022
 20
5432.7689930139
 30
0.0
 11
10660.5870653185
 21
5432.8680589229
 31
0.0
  0
ARC
  5
3AD
330
1F
100
AcDbEntity
  8
0
  6
Continuous
 62
     7
370
    15
100
AcDbCircle
 10
10672.0207626659
 20
5418.5754681628
 30
0.0
 40
3.440888276263891
100
AcDbArc
 50
357.6341930851
 51
0.9651636933
  0
LINE
  5
3AE
330
1F
100
AcDbEntity
  8
0
  6
Continuous
 62
     7
370
    15
100
AcDbLine
 10
10675.4587180763
 20
5418.433430401
 30
0.0
 11
9275.3725512861
 21
4051.9064099882
 31
0.0
  0
ARC
  5
3AF
330
1F
100
AcDbEntity
  8
0
  6
Continuous
 62
     7
370
    15
100
AcDbCircle
 10
10672.1769236565
 20
5418.5690030638
 30
0.0
 40
3.284593515282818
100
AcDbArc
 50
354.1990014967
 51
357.6344261041
  0
LINE
  5
3B0
330
1F
100
AcDbEntity
  8
0
  6
Continuous
 62
     7
370
    15
100
AcDbLine
 10
10675.4446965962
 20
5418.2370172573
 30
0.0
 11
9275.358529806
 21
4051.7099968445
 31
0.0
  0
ARC
  5
3B1
330
1F
100
AcDbEntity
  8
0
  6
Continuous
 62
     7
370
    15
100
AcDbCircle
 10
10672.3238461481
 20
5418.5541226642
 30
0.0
 40
3.136919405758309
100
AcDbArc
 50
350.6557231726
 51
354.1981650703
  0
LINE
  5
3B2
330
1F
100
AcDbEntity
  8
0
  6
Continuous
 62
     7
370
    15
100
AcDbLine
 10
10675.4191403214
 20
5418.0447923795
 30
0.0
 11
9275.3329735312
 21
4051.5177719667
 31
0.0
  0
LINE
  5
3B3
330
1F
100
AcDbEntity
  8
0
  6
Continuous
 62
     7
370
    15
100
AcDbLine
 10
10675.4191403214
 20
5418.0447923795
 30
0.0
 11
10675.1586684497
 21
5416.4641706669
 31
0.0
  0
LINE
  5
3B4
330
1F
100
AcDbEntity
  8
0
  6
Continuous
 62
     7
370
    15
100
AcDbLine
 10
10675.1586684497
 20
5416.4641706669
 30
0.0
 11
9275.0725016595
 21
4049.9371502541
 31
0.0
  0
LINE
  5
3B5
330
1F
100
AcDbEntity
  8
0
  6
Continuous
 62
     7
370
    15
100
AcDbLine
 10
10660.3509463272
 20
5432.8794219128
 30
0.0
 11
9260.264779537
 21
4066.3524015
 31
0.0
  0
ARC
  5
3B6
330
1F
100
AcDbEntity
  8
0
  6
Continuous
 62
     7
370
    15
100
AcDbCircle
 10
10660.2940735451
 20
5429.2387083402
 30
0.0
 40
3.641157759740356
100
AcDbArc
 50
85.3846106118
 51
89.1050366096
  0
LINE
  5
3B7
330
1F
100
AcDbEntity
  8
0
  6
Continuous
 62
     7
370
    15
100
AcDbLine
 10
10660.1188493583
 20
5432.8752369986
 30
0.0
 11
9260.0326825681
 21
4066.3482165858
 31
0.0
  0
ARC
  5
3B8
330
1F
100
AcDbEntity
  8
0
  6
Continuous
 62
     7
370
    15
100
AcDbCircle
 10
10660.2970400155
 20
5429.4309003962
 30
0.0
 40
3.448942814984051
100
AcDbArc
 50
89.1044415408
 51
92.9615220362
  0
LINE
  5
3B9
330
1F
100
AcDbEntity
  8
0
  6
Continuous
 62
     7
370
    15
100
AcDbLine
 10
10659.8917339973
 20
5432.8555203953
 30
0.0
 11
9259.8055672071
 21
4066.3284999825
 31
0.0
  0
ARC
  5
3BA
330
1F
100
AcDbEntity
  8
0
  6
Continuous
 62
     7
370
    15
100
AcDbCircle
 10
10660.2875794067
 20
5429.6137091054
 30
0.0
 40
3.265889469621146
100
AcDbArc
 50
92.961467522
 51
96.9617095503
  0
LINE
  5
3BB
330
1F
100
AcDbEntity
  8
0
  6
Continuous
 62
     7
370
    15
100
AcDbLine
 10
10659.6705384141
 20
5432.8203556073
 30
0.0
 11
9259.584371624
 21
4066.2933351945
 31
0.0
  0
ARC
  5
3BC
330
1F
100
AcDbEntity
  8
0
  6
Continuous
 62
     7
370
    15
100
AcDbCircle
 10
10660.2671689347
 20
5429.7806668219
 30
0.0
 40
3.097688798128394
100
AcDbArc
 50
96.9612708973
 51
101.1048514015
  0
LINE
  5
3BD
330
1F
100
AcDbEntity
  8
0
  6
Continuous
 62
     7
370
    15
100
AcDbLine
 10
10659.4561764802
 20
5432.7698862289
 30
0.0
 11
9259.37000969
 21
4066.242865816
 31
0.0
  0
ARC
  5
3BE
330
1F
100
AcDbEntity
  8
0
  6
Continuous
 62
     7
370
    15
100
AcDbCircle
 10
10660.2377507346
 20
5429.930725638
 30
0.0
 40
2.944773535555836
100
AcDbArc
 50
101.1055265946
 51
105.3913550337
  0
LINE
  5
3BF
330
1F
100
AcDbEntity
  8
0
  6
Continuous
 62
     7
370
    15
100
AcDbLine
 10
10659.2495344736
 20
5432.7043216294
 30
0.0
 11
9259.1633676834
 21
4066.1773012166
 31
0.0
  0
ARC
  5
3C0
330
1F
100
AcDbEntity
  8
0
  6
Continuous
 62
     7
370
    15
100
AcDbCircle
 10
10660.2018992981
 20
5430.0611458607
 30
0.0
 40
2.809515421469276
100
AcDbArc
 50
105.3923599143
 51
109.814640184
  0
ARC
  5
3C1
330
1F
100
AcDbEntity
  8
0
  6
Continuous
 62
     7
370
    15
100
AcDbCircle
 10
10672.1921125872
 20
5416.9524534241
 30
0.0
 40
3.006471974992272
100
AcDbArc
 50
347.3568510772
 51
350.6531592395
  0
LINE
  5
3C2
330
1F
100
AcDbEntity
  8
0
  6
Continuous
 62
     7
370
    15
100
AcDbLine
 10
10675.1256842417
 20
5416.2944024501
 30
0.0
 11
9275.0395174515
 21
4049.7673820373
 31
0.0
  0
LINE
  5
3C3
330
1F
100
AcDbEntity
  8
0
  6
Continuous
 62
     7
370
    15
100
AcDbLine
 10
10659.0514657252
 20
5432.6239328203
 30
0.0
 11
9258.9652989351
 21
4066.0969124075
 31
0.0
  0
ARC
  5
3C4
330
1F
100
AcDbEntity
  8
0
  6
Continuous
 62
     7
370
    15
100
AcDbCircle
 10
10660.1627586214
 20
5430.1700390451
 30
0.0
 40
2.693801507403337
100
AcDbArc
 50
109.8165354657
 51
114.3643075434
  0
ARC
  5
3C5
330
1F
100
AcDbEntity
  8
0
  6
Continuous
 62
     7
370
    15
100
AcDbCircle
 10
10672.3017385365
 20
5416.9279010445
 30
0.0
 40
2.894130234650413
100
AcDbArc
 50
343.975276327
 51
347.3561050249
  0
LINE
  5
3C6
330
1F
100
AcDbEntity
  8
0
  6
Continuous
 62
     7
370
    15
100
AcDbLine
 10
10675.0834105869
 20
5416.128970247
 30
0.0
 11
9274.9972437967
 21
4049.6019498341
 31
0.0
  0
LINE
  5
3C7
330
1F
100
AcDbEntity
  8
0
  6
Continuous
 62
     7
370
    15
100
AcDbLine
 10
10658.8627893836
 20
5432.5290511944
 30
0.0
 11
9258.7766225934
 21
4066.0020307816
 31
0.0
  0
ARC
  5
3C8
330
1F
100
AcDbEntity
  8
0
  6
Continuous
 62
     7
370
    15
100
AcDbCircle
 10
10660.1232942531
 20
5430.2575175551
 30
0.0
 40
2.597833251115634
100
AcDbArc
 50
114.3673604496
 51
119.0264891725
  0
ARC
  5
3C9
330
1F
100
AcDbEntity
  8
0
  6
Continuous
 62
     7
370
    15
100
AcDbCircle
 10
10672.4006039078
 20
5416.8995589942
 30
0.0
 40
2.791282625334387
100
AcDbArc
 50
340.5104682802
 51
343.9742244998
  0
LINE
  5
3CA
330
1F
100
AcDbEntity
  8
0
  6
Continuous
 62
     7
370
    15
100
AcDbLine
 10
10675.031952916
 20
5415.9682904554
 30
0.0
 11
9274.9457861259
 21
4049.4412700426
 31
0.0
  0
ARC
  5
3CB
330
1F
100
AcDbEntity
  8
0
  6
Continuous
 62
     7
370
    15
100
AcDbCircle
 10
10672.4859912312
 20
5416.8693310971
 30
0.0
 40
2.700702712005951
100
AcDbArc
 50
336.9696679278
 51
340.510632597
  0
LINE
  5
3CC
330
1F
100
AcDbEntity
  8
0
  6
Continuous
 62
     7
370
    15
100
AcDbLine
 10
10674.9714421942
 20
5415.8127665466
 30
0.0
 11
9274.885275404
 21
4049.2857461337
 31
0.0
  0
LINE
  5
3CD
330
1F
100
AcDbEntity
  8
0
  6
Continuous
 62
     7
370
    15
100
AcDbLine
 10
10658.3657014305
 20
5432.2454394917
 30
0.0
 11
9258.2795346403
 21
4065.7184190789
 31
0.0
  0
ARC
  5
3CE
330
1F
100
AcDbEntity
  8
0
  6
Continuous
 62
     7
370
    15
100
AcDbCircle
 10
10670.7757493997
 20
5411.0717034706
 30
0.0
 40
24.54254240473957
100
AcDbArc
 50
119.0387091655
 51
120.3748117738
  0
ARC
  5
3CF
330
1F
100
AcDbEntity
  8
0
  6
Continuous
 62
     7
370
    15
100
AcDbCircle
 10
10672.5567412657
 20
5416.8392824066
 30
0.0
 40
2.623836005675411
100
AcDbArc
 50
333.3597759911
 51
336.9691227066
  0
LINE
  5
3D0
330
1F
100
AcDbEntity
  8
0
  6
Continuous
 62
     7
370
    15
100
AcDbLine
 10
10674.902029978
 20
5415.6627892105
 30
0.0
 11
9274.8158631879
 21
4049.1357687977
 31
0.0
  0
ARC
  5
3D1
330
1F
100
AcDbEntity
  8
0
  6
Continuous
 62
     7
370
    15
100
AcDbCircle
 10
10672.6147024576
 20
5416.8102999981
 30
0.0
 40
2.559032667556755
100
AcDbArc
 50
329.6880285543
 51
333.3579086585
  0
LINE
  5
3D2
330
1F
100
AcDbEntity
  8
0
  6
Continuous
 62
     7
370
    15
100
AcDbLine
 10
10674.8238900639
 20
5415.5187357087
 30
0.0
 11
9274.7377232737
 21
4048.9917152959
 31
0.0
  0
ARC
  5
3D3
330
1F
100
AcDbEntity
  8
0
  6
Continuous
 62
     7
370
    15
100
AcDbCircle
 10
10672.6597346686
 20
5416.7840790499
 30
0.0
 40
2.506922883946385
100
AcDbArc
 50
325.9653312208
 51
329.6859297254
  0
LINE
  5
3D4
330
1F
100
AcDbEntity
  8
0
  6
Continuous
 62
     7
370
    15
100
AcDbLine
 10
10674.7372193109
 20
5415.3809682534
 30
0.0
 11
9274.6510525207
 21
4048.8539478406
 31
0.0
  0
LINE
  5
3D5
330
1F
100
AcDbEntity
  8
0
  6
Continuous
 62
     7
370
    15
100
AcDbLine
 10
10657.8766315765
 20
5431.951036589
 30
0.0
 11
9257.7904647863
 21
4065.4240161762
 31
0.0
  0
ARC
  5
3D6
330
1F
100
AcDbEntity
  8
0
  6
Continuous
 62
     7
370
    15
100
AcDbCircle
 10
10670.6796396334
 20
5411.2357717872
 30
0.0
 40
24.35239641425789
100
AcDbArc
 50
120.3749165408
 51
121.7180154347
  0
ARC
  5
3D7
330
1F
100
AcDbEntity
  8
0
  6
Continuous
 62
     7
370
    15
100
AcDbCircle
 10
10672.6932876931
 20
5416.7614642374
 30
0.0
 40
2.466460139571687
100
AcDbArc
 50
322.2023361038
 51
325.9644353021
  0
LINE
  5
3D8
330
1F
100
AcDbEntity
  8
0
  6
Continuous
 62
     7
370
    15
100
AcDbLine
 10
10674.6422351701
 20
5415.2498328829
 30
0.0
 11
9274.5560683799
 21
4048.7228124701
 31
0.0
  0
LINE
  5
3D9
330
1F
100
AcDbEntity
  8
0
  6
Continuous
 62
     7
370
    15
100
AcDbLine
 10
10674.6422351701
 20
5415.2498328829
 30
0.0
 11
10672.593114001
 21
5412.6081665344
 31
0.0
  0
LINE
  5
3DA
330
1F
100
AcDbEntity
  8
0
  6
Continuous
 62
     7
370
    15
100
AcDbLine
 10
10672.593114001
 20
5412.6081665344
 30
0.0
 11
9272.5069472108
 21
4046.0811461216
 31
0.0
  0
LINE
  5
3DB
330
1F
100
AcDbEntity
  8
0
  6
Continuous
 62
     7
370
    15
100
AcDbLine
 10
10657.3957404387
 20
5431.6459393348
 30
0.0
 11
9257.3095736485
 21
4065.118918922
 31
0.0
  0
ARC
  5
3DC
330
1F
100
AcDbEntity
  8
0
  6
Continuous
 62
     7
370
    15
100
AcDbCircle
 10
10670.5921703794
 20
5411.3773993412
 30
0.0
 40
24.18593551337505
100
AcDbArc
 50
121.7181428657
 51
123.0673245836
  0
LINE
  5
3DD
330
1F
100
AcDbEntity
  8
0
  6
Continuous
 62
     7
370
    15
100
AcDbLine
 10
10656.9231878108
 20
5431.3302487928
 30
0.0
 11
9256.8370210206
 21
4064.80322838
 31
0.0
  0
ARC
  5
3DE
330
1F
100
AcDbEntity
  8
0
  6
Continuous
 62
     7
370
    15
100
AcDbCircle
 10
10670.5113592108
 20
5411.5018345178
 30
0.0
 40
24.03756257727479
100
AcDbArc
 50
123.0677361097
 51
124.4223672696
  0
LINE
  5
3DF
330
1F
100
AcDbEntity
  8
0
  6
Continuous
 62
     7
370
    15
100
AcDbLine
 10
10656.4591306036
 20
5431.0040692049
 30
0.0
 11
9256.3729638134
 21
4064.4770487921
 31
0.0
  0
ARC
  5
3E0
330
1F
100
AcDbEntity
  8
0
  6
Continuous
 62
     7
370
    15
100
AcDbCircle
 10
10670.4327008977
 20
5411.6170041258
 30
0.0
 40
23.89809530371059
100
AcDbArc
 50
124.422893373
 51
125.7828453169
  0
LINE
  5
3E1
330
1F
100
AcDbEntity
  8
0
  6
Continuous
 62
     7
370
    15
100
AcDbLine
 10
10656.0037211976
 20
5430.6675092377
 30
0.0
 11
9255.9175544075
 21
4064.1404888249
 31
0.0
  0
ARC
  5
3E2
330
1F
100
AcDbEntity
  8
0
  6
Continuous
 62
     7
370
    15
100
AcDbCircle
 10
10670.3611478089
 20
5411.7164378776
 30
0.0
 40
23.77559262343773
100
AcDbArc
 50
125.7830712093
 51
127.1477515728
  0
LINE
  5
3E3
330
1F
100
AcDbEntity
  8
0
  6
Continuous
 62
     7
370
    15
100
AcDbLine
 10
10655.5571111498
 20
5430.3206797774
 30
0.0
 11
9255.4709443596
 21
4063.7936593645
 31
0.0
  0
ARC
  5
3E4
330
1F
100
AcDbEntity
  8
0
  6
Continuous
 62
     7
370
    15
100
AcDbCircle
 10
10670.2993545137
 20
5411.7981517227
 30
0.0
 40
23.67314480456571
100
AcDbArc
 50
127.1479705777
 51
128.5165912669
  0
LINE
  5
3E5
330
1F
100
AcDbEntity
  8
0
  6
Continuous
 62
     7
370
    15
100
AcDbLine
 10
10655.1194487221
 20
5429.9636953994
 30
0.0
 11
9255.0332819319
 21
4063.4366749866
 31
0.0
  0
ARC
  5
3E6
330
1F
100
AcDbEntity
  8
0
  6
Continuous
 62
     7
370
    15
100
AcDbCircle
 10
10670.2445987339
 20
5411.8670582696
 30
0.0
 40
23.58513172077682
100
AcDbArc
 50
128.5167576757
 51
129.8888416222
  0
ARC
  5
3E7
330
1F
100
AcDbEntity
  8
0
  6
Continuous
 62
     7
370
    15
100
AcDbCircle
 10
10670.6638445158
 20
5414.1045372143
 30
0.0
 40
2.441558100543761
100
AcDbArc
 50
317.5973566489
 51
322.202301698
  0
LINE
  5
3E8
330
1F
100
AcDbEntity
  8
0
  6
Continuous
 62
     7
370
    15
100
AcDbLine
 10
10672.4667501781
 20
5412.4581055786
 30
0.0
 11
9272.3805833879
 21
4045.9310851657
 31
0.0
  0
ARC
  5
3E9
330
1F
100
AcDbEntity
  8
0
  6
Continuous
 62
     7
370
    15
100
AcDbCircle
 10
10670.6719003008
 20
5414.0973912004
 30
0.0
 40
2.430790700962894
100
AcDbArc
 50
312.9749005792
 51
317.5936909178
  0
LINE
  5
3EA
330
1F
100
AcDbEntity
  8
0
  6
Continuous
 62
     7
370
    15
100
AcDbLine
 10
10672.3289166312
 20
5412.3188973677
 30
0.0
 11
9272.242749841
 21
4045.7918769549
 31
0.0
  0
LINE
  5
3EB
330
1F
100
AcDbEntity
  8
0
  6
Continuous
 62
     7
370
    15
100
AcDbLine
 10
10654.9573627836
 20
5429.8152102754
 30
0.0
 11
9254.8711959934
 21
4063.2881898626
 31
0.0
  0
ARC
  5
3EC
330
1F
100
AcDbEntity
  8
0
  6
Continuous
 62
     7
370
    15
100
AcDbCircle
 10
10656.6807255569
 20
5428.0967012157
 30
0.0
 40
2.43377333311192
100
AcDbArc
 50
129.9041068645
 51
135.0807982202
  0
ENDSEC
  0
SECTION
  2
OBJECTS
  0
DICTIONARY
  5
C
330
0
100
AcDbDictionary
281
     1
  3
ACAD_GROUP
350
D
  3
ACAD_LAYOUT
350
1A
  3
ACAD_MLINESTYLE
350
17
  3
ACAD_PLOTSETTINGS
350
19
  3
ACAD_PLOTSTYLENAME
350
E
  3
ACAD_SCALELIST
350
47
  0
DICTIONARY
  5
D
102
{ACAD_REACTORS
330
C
102
}
330
C
100
AcDbDictionary
281
     1
  0
DICTIONARY
  5
1A
102
{ACAD_REACTORS
330
C
102
}
330
C
100
AcDbDictionary
281
     1
  3
Layout1
350
1E
  3
Layout2
350
26
  3
Model
350
22
  0
DICTIONARY
  5
17
102
{ACAD_REACTORS
330
C
102
}
330
C
100
AcDbDictionary
281
     1
  3
Standard
350
18
  0
DICTIONARY
  5
19
102
{ACAD_REACTORS
330
C
102
}
330
C
100
AcDbDictionary
281
     1
  0
ACDBDICTIONARYWDFLT
  5
E
102
{ACAD_REACTORS
330
C
102
}
330
C
100
AcDbDictionary
281
     1
  3
Normal
350
F
100
AcDbDictionaryWithDefault
340
F
  0
DICTIONARY
  5
47
102
{ACAD_REACTORS
330
C
102
}
330
C
100
AcDbDictionary
281
     1
  3
A0
350
48
  3
A1
350
49
  3
A2
350
4A
  3
A3
350
4B
  3
A4
350
4C
  3
A5
350
4D
  3
A6
350
4E
  3
A7
350
4F
  3
A8
350
50
  3
A9
350
51
  3
B0
350
52
  3
B1
350
53
  3
B2
350
54
  3
B3
350
55
  3
B4
350
56
  3
B5
350
57
  3
B6
350
58
  3
B7
350
59
  3
B8
350
5A
  3
B9
350
5B
  3
C0
350
5C
  3
C1
350
5D
  3
C2
350
5E
  3
C3
350
5F
  3
C4
350
60
  3
C5
350
61
  3
C6
350
62
  3
C7
350
63
  3
C8
350
64
  3
C9
350
65
  3
D0
350
66
  3
D1
350
67
  3
D2
350
68
  0
LAYOUT
  5
1E
102
{ACAD_REACTORS
330
1A
102
}
330
1A
100
AcDbPlotSettings
  1

  2
none_device
  4

  6

 40
0.0
 41
0.0
 42
0.0
 43
0.0
 44
0.0
 45
0.0
 46
0.0
 47
0.0
 48
0.0
 49
0.0
140
0.0
141
0.0
142
1.0
143
1.0
 70
   688
 72
     1
 73
     0
 74
     5
  7

 75
    16
147
1.0
148
0.0
149
0.0
100
AcDbLayout
  1
Layout1
 70
     1
 71
     1
 10
0.0
 20
0.0
 11
420.0
 21
297.0
 12
0.0
 22
0.0
 32
0.0
 14
1.0000000000E+20
 24
1.0000000000E+20
 34
1.0000000000E+20
 15
-1.0000000000E+20
 25
-1.0000000000E+20
 35
-1.0000000000E+20
146
0.0
 13
0.0
 23
0.0
 33
0.0
 16
1.0
 26
0.0
 36
0.0
 17
0.0
 27
1.0
 37
0.0
 76
     0
330
1B
  0
LAYOUT
  5
26
102
{ACAD_REACTORS
330
1A
102
}
330
1A
100
AcDbPlotSettings
  1

  2
none_device
  4

  6

 40
0.0
 41
0.0
 42
0.0
 43
0.0
 44
0.0
 45
0.0
 46
0.0
 47
0.0
 48
0.0
 49
0.0
140
0.0
141
0.0
142
1.0
143
1.0
 70
   688
 72
     1
 73
     0
 74
     5
  7

 75
    16
147
1.0
148
0.0
149
0.0
100
AcDbLayout
  1
Layout2
 70
     1
 71
     2
 10
0.0
 20
0.0
 11
0.0
 21
0.0
 12
0.0
 22
0.0
 32
0.0
 14
0.0
 24
0.0
 34
0.0
 15
0.0
 25
0.0
 35
0.0
146
0.0
 13
0.0
 23
0.0
 33
0.0
 16
1.0
 26
0.0
 36
0.0
 17
0.0
 27
1.0
 37
0.0
 76
     0
330
23
  0
LAYOUT
  5
22
102
{ACAD_REACTORS
330
1A
102
}
330
1A
100
AcDbPlotSettings
  1

  2
none_device
  4
Letter_(8.50_x_11.00_Inches)
  6

 40
6.35
 41
6.35
 42
6.35000508
 43
6.35000508
 44
215.9
 45
279.4
 46
0.0
 47
0.0
 48
0.0
 49
0.0
140
0.0
141
0.0
142
1.0
143
1.0
 70
  1712
 72
     1
 73
     0
 74
     0
  7

 75
     0
147
1.0
148
0.0
149
0.0
100
AcDbLayout
  1
Model
 70
     1
 71
     0
 10
0.0
 20
0.0
 11
14850.0
 21
10500.0
 12
0.0
 22
0.0
 32
0.0
 14
0.0
 24
0.0
 34
0.0
 15
14850.0
 25
10500.0
 35
0.0
146
0.0
 13
0.0
 23
0.0
 33
0.0
 16
1.0
 26
0.0
 36
0.0
 17
0.0
 27
1.0
 37
0.0
 76
     0
330
1F
331
29
  0
MLINESTYLE
  5
18
102
{ACAD_REACTORS
330
17
102
}
330
17
100
AcDbMlineStyle
  2
Standard
 70
     0
  3

 62
   256
 51
90.0
 52
90.0
 71
     2
 49
0.5
 62
   256
  6
BYLAYER
 49
-0.5
 62
   256
  6
BYLAYER
  0
ACDBPLACEHOLDER
  5
F
102
{ACAD_REACTORS
330
E
102
}
330
E
  0
SCALE
  5
48
102
{ACAD_REACTORS
330
47
102
}
330
47
100
AcDbScale
 70
     0
300
1:1
140
1.0
141
1.0
290
     1
  0
SCALE
  5
49
102
{ACAD_REACTORS
330
47
102
}
330
47
100
AcDbScale
 70
     0
300
1:2
140
1.0
141
2.0
290
     0
  0
SCALE
  5
4A
102
{ACAD_REACTORS
330
47
102
}
330
47
100
AcDbScale
 70
     0
300
1:4
140
1.0
141
4.0
290
     0
  0
SCALE
  5
4B
102
{ACAD_REACTORS
330
47
102
}
330
47
100
AcDbScale
 70
     0
300
1:5
140
1.0
141
5.0
290
     0
  0
SCALE
  5
4C
102
{ACAD_REACTORS
330
47
102
}
330
47
100
AcDbScale
 70
     0
300
1:8
140
1.0
141
8.0
290
     0
  0
SCALE
  5
4D
102
{ACAD_REACTORS
330
47
102
}
330
47
100
AcDbScale
 70
     0
300
1:10
140
1.0
141
10.0
290
     0
  0
SCALE
  5
4E
102
{ACAD_REACTORS
330
47
102
}
330
47
100
AcDbScale
 70
     0
300
1:16
140
1.0
141
16.0
290
     0
  0
SCALE
  5
4F
102
{ACAD_REACTORS
330
47
102
}
330
47
100
AcDbScale
 70
     0
300
1:20
140
1.0
141
20.0
290
     0
  0
SCALE
  5
50
102
{ACAD_REACTORS
330
47
102
}
330
47
100
AcDbScale
 70
     0
300
1:30
140
1.0
141
30.0
290
     0
  0
SCALE
  5
51
102
{ACAD_REACTORS
330
47
102
}
330
47
100
AcDbScale
 70
     0
300
1:40
140
1.0
141
40.0
290
     0
  0
SCALE
  5
52
102
{ACAD_REACTORS
330
47
102
}
330
47
100
AcDbScale
 70
     0
300
1:50
140
1.0
141
50.0
290
     0
  0
SCALE
  5
53
102
{ACAD_REACTORS
330
47
102
}
330
47
100
AcDbScale
 70
     0
300
1:100
140
1.0
141
100.0
290
     0
  0
SCALE
  5
54
102
{ACAD_REACTORS
330
47
102
}
330
47
100
AcDbScale
 70
     0
300
2:1
140
2.0
141
1.0
290
     0
  0
SCALE
  5
55
102
{ACAD_REACTORS
330
47
102
}
330
47
100
AcDbScale
 70
     0
300
4:1
140
4.0
141
1.0
290
     0
  0
SCALE
  5
56
102
{ACAD_REACTORS
330
47
102
}
330
47
100
AcDbScale
 70
     0
300
8:1
140
8.0
141
1.0
290
     0
  0
SCALE
  5
57
102
{ACAD_REACTORS
330
47
102
}
330
47
100
AcDbScale
 70
     0
300
10:1
140
10.0
141
1.0
290
     0
  0
SCALE
  5
58
102
{ACAD_REACTORS
330
47
102
}
330
47
100
AcDbScale
 70
     0
300
100:1
140
100.0
141
1.0
290
     0
  0
SCALE
  5
59
102
{ACAD_REACTORS
330
47
102
}
330
47
100
AcDbScale
 70
     0
300
1/128" = 1'-0"
140
0.0078125
141
12.0
290
     0
  0
SCALE
  5
5A
102
{ACAD_REACTORS
330
47
102
}
330
47
100
AcDbScale
 70
     0
300
1/64" = 1'-0"
140
0.015625
141
12.0
290
     0
  0
SCALE
  5
5B
102
{ACAD_REACTORS
330
47
102
}
330
47
100
AcDbScale
 70
     0
300
1/32" = 1'-0"
140
0.03125
141
12.0
290
     0
  0
SCALE
  5
5C
102
{ACAD_REACTORS
330
47
102
}
330
47
100
AcDbScale
 70
     0
300
1/16" = 1'-0"
140
0.0625
141
12.0
290
     0
  0
SCALE
  5
5D
102
{ACAD_REACTORS
330
47
102
}
330
47
100
AcDbScale
 70
     0
300
3/32" = 1'-0"
140
0.09375
141
12.0
290
     0
  0
SCALE
  5
5E
102
{ACAD_REACTORS
330
47
102
}
330
47
100
AcDbScale
 70
     0
300
1/8" = 1'-0"
140
0.125
141
12.0
290
     0
  0
SCALE
  5
5F
102
{ACAD_REACTORS
330
47
102
}
330
47
100
AcDbScale
 70
     0
300
3/16" = 1'-0"
140
0.1875
141
12.0
290
     0
  0
SCALE
  5
60
102
{ACAD_REACTORS
330
47
102
}
330
47
100
AcDbScale
 70
     0
300
1/4" = 1'-0"
140
0.25
141
12.0
290
     0
  0
SCALE
  5
61
102
{ACAD_REACTORS
330
47
102
}
330
47
100
AcDbScale
 70
     0
300
3/8" = 1'-0"
140
0.375
141
12.0
290
     0
  0
SCALE
  5
62
102
{ACAD_REACTORS
330
47
102
}
330
47
100
AcDbScale
 70
     0
300
1/2" = 1'-0"
140
0.5
141
12.0
290
     0
  0
SCALE
  5
63
102
{ACAD_REACTORS
330
47
102
}
330
47
100
AcDbScale
 70
     0
300
3/4" = 1'-0"
140
0.75
141
12.0
290
     0
  0
SCALE
  5
64
102
{ACAD_REACTORS
330
47
102
}
330
47
100
AcDbScale
 70
     0
300
1" = 1'-0"
140
1.0
141
12.0
290
     0
  0
SCALE
  5
65
102
{ACAD_REACTORS
330
47
102
}
330
47
100
AcDbScale
 70
     0
300
1-1/2" = 1'-0"
140
1.5
141
12.0
290
     0
  0
SCALE
  5
66
102
{ACAD_REACTORS
330
47
102
}
330
47
100
AcDbScale
 70
     0
300
3" = 1'-0"
140
3.0
141
12.0
290
     0
  0
SCALE
  5
67
102
{ACAD_REACTORS
330
47
102
}
330
47
100
AcDbScale
 70
     0
300
6" = 1'-0"
140
6.0
141
12.0
290
     0
  0
SCALE
  5
68
102
{ACAD_REACTORS
330
47
102
}
330
47
100
AcDbScale
 70
     0
300
1'-0" = 1'-0"
140
12.0
141
12.0
290
     0
  0
ENDSEC
  0
EOF
