  0
SECTION
  2
HEADER
  9
$ACADVER
  1
AC1015
  9
$ACADMAINTVER
 70
     6
  9
$DWGCODEPAGE
  3
ANSI_1252
  9
$INSBASE
 10
0.0
 20
0.0
 30
0.0
  9
$EXTMIN
 10
0.0
 20
0.0
 30
0.0
  9
$EXTMAX
 10
14850.0
 20
10500.0
 30
0.0
  9
$LIMMIN
 10
0.0
 20
0.0
  9
$LIMMAX
 10
14850.0
 20
10500.0
  9
$ORTHOMODE
 70
     0
  9
$REGENMODE
 70
     1
  9
$FILLMODE
 70
     1
  9
$QTEXTMODE
 70
     0
  9
$MIRRTEXT
 70
     1
  9
$LTSCALE
 40
50.0
  9
$ATTMODE
 70
     1
  9
$TEXTSIZE
 40
175.0
  9
$TRACEWID
 40
1.0
  9
$TEXTSTYLE
  7
Standard
  9
$CLAYER
  8
0
  9
$CELTYPE
  6
ByLayer
  9
$CECOLOR
 62
   256
  9
$CELTSCALE
 40
1.0
  9
$DISPSILH
 70
     0
  9
$DIMSCALE
 40
1.0
  9
$DIMASZ
 40
165.1
  9
$DIMEXO
 40
50.0
  9
$DIMDLI
 40
3.75
  9
$DIMRND
 40
0.0
  9
$DIMDLE
 40
0.0
  9
$DIMEXE
 40
50.0
  9
$DIMTP
 40
0.0
  9
$DIMTM
 40
0.0
  9
$DIMTXT
 40
175.0
  9
$DIMCEN
 40
2.5
  9
$DIMTSZ
 40
0.0
  9
$DIMTOL
 70
     0
  9
$DIMLIM
 70
     0
  9
$DIMTIH
 70
     1
  9
$DIMTOH
 70
     1
  9
$DIMSE1
 70
     0
  9
$DIMSE2
 70
     0
  9
$DIMTAD
 70
     1
  9
$DIMZIN
 70
     0
  9
$DIMBLK
  1

  9
$DIMASO
 70
     1
  9
$DIMSHO
 70
     1
  9
$DIMPOST
  1

  9
$DIMAPOST
  1

  9
$DIMALT
 70
     0
  9
$DIMALTD
 70
     3
  9
$DIMALTF
 40
0.0393700787
  9
$DIMLFAC
 40
1.0
  9
$DIMTOFL
 70
     1
  9
$DIMTVP
 40
0.0
  9
$DIMTIX
 70
     0
  9
$DIMSOXD
 70
     0
  9
$DIMSAH
 70
     0
  9
$DIMBLK1
  1

  9
$DIMBLK2
  1

  9
$DIMSTYLE
  2
ISO-25
  9
$DIMCLRD
 70
     0
  9
$DIMCLRE
 70
     0
  9
$DIMCLRT
 70
     0
  9
$DIMTFAC
 40
1.0
  9
$DIMGAP
 40
76.2
  9
$DIMJUST
 70
     0
  9
$DIMSD1
 70
     0
  9
$DIMSD2
 70
     0
  9
$DIMTOLJ
 70
     0
  9
$DIMTZIN
 70
     0
  9
$DIMALTZ
 70
     0
  9
$DIMALTTZ
 70
     0
  9
$DIMUPT
 70
     0
  9
$DIMDEC
 70
     2
  9
$DIMTDEC
 70
     2
  9
$DIMALTU
 70
     2
  9
$DIMALTTD
 70
     3
  9
$DIMTXSTY
  7
Standard
  9
$DIMAUNIT
 70
     0
  9
$DIMADEC
 70
     2
  9
$DIMALTRND
 40
0.0
  9
$DIMAZIN
 70
     0
  9
$DIMDSEP
 70
    44
  9
$DIMATFIT
 70
     3
  9
$DIMFRAC
 70
     0
  9
$DIMLDRBLK
  1

  9
$DIMLUNIT
 70
     2
  9
$DIMLWD
 70
    -2
  9
$DIMLWE
 70
    -2
  9
$DIMTMOVE
 70
     0
  9
$LUNITS
 70
     2
  9
$LUPREC
 70
     2
  9
$SKETCHINC
 40
1.0
  9
$FILLETRAD
 40
10.0
  9
$AUNITS
 70
     0
  9
$AUPREC
 70
     2
  9
$MENU
  1
.
  9
$ELEVATION
 40
0.0
  9
$PELEVATION
 40
0.0
  9
$THICKNESS
 40
0.0
  9
$LIMCHECK
 70
     0
  9
$CHAMFERA
 40
0.0
  9
$CHAMFERB
 40
0.0
  9
$CHAMFERC
 40
0.0
  9
$CHAMFERD
 40
0.0
  9
$SKPOLY
 70
     0
  9
$TDCREATE
 40
2456902.491741597
  9
$TDUCREATE
 40
2456902.408408264
  9
$TDUPDATE
 40
2456902.491742616
  9
$TDUUPDATE
 40
2456902.408409283
  9
$TDINDWG
 40
0.0000000116
  9
$TDUSRTIMER
 40
0.0000000116
  9
$USRTIMER
 70
     1
  9
$ANGBASE
 50
0.0
  9
$ANGDIR
 70
     0
  9
$PDMODE
 70
     0
  9
$PDSIZE
 40
-1.0
  9
$PLINEWID
 40
0.0
  9
$SPLFRAME
 70
     0
  9
$SPLINETYPE
 70
     6
  9
$SPLINESEGS
 70
     8
  9
$HANDSEED
  5
346
  9
$SURFTAB1
 70
     6
  9
$SURFTAB2
 70
     6
  9
$SURFTYPE
 70
     6
  9
$SURFU
 70
     6
  9
$SURFV
 70
     6
  9
$UCSBASE
  2

  9
$UCSNAME
  2

  9
$UCSORG
 10
0.0
 20
0.0
 30
0.0
  9
$UCSXDIR
 10
1.0
 20
0.0
 30
0.0
  9
$UCSYDIR
 10
0.0
 20
1.0
 30
0.0
  9
$UCSORTHOREF
  2

  9
$UCSORTHOVIEW
 70
     0
  9
$UCSORGTOP
 10
0.0
 20
0.0
 30
0.0
  9
$UCSORGBOTTOM
 10
0.0
 20
0.0
 30
0.0
  9
$UCSORGLEFT
 10
0.0
 20
0.0
 30
0.0
  9
$UCSORGRIGHT
 10
0.0
 20
0.0
 30
0.0
  9
$UCSORGFRONT
 10
0.0
 20
0.0
 30
0.0
  9
$UCSORGBACK
 10
0.0
 20
0.0
 30
0.0
  9
$PUCSBASE
  2

  9
$PUCSNAME
  2

  9
$PUCSORG
 10
0.0
 20
0.0
 30
0.0
  9
$PUCSXDIR
 10
1.0
 20
0.0
 30
0.0
  9
$PUCSYDIR
 10
0.0
 20
1.0
 30
0.0
  9
$PUCSORTHOREF
  2

  9
$PUCSORTHOVIEW
 70
     0
  9
$PUCSORGTOP
 10
0.0
 20
0.0
 30
0.0
  9
$PUCSORGBOTTOM
 10
0.0
 20
0.0
 30
0.0
  9
$PUCSORGLEFT
 10
0.0
 20
0.0
 30
0.0
  9
$PUCSORGRIGHT
 10
0.0
 20
0.0
 30
0.0
  9
$PUCSORGFRONT
 10
0.0
 20
0.0
 30
0.0
  9
$PUCSORGBACK
 10
0.0
 20
0.0
 30
0.0
  9
$USERI1
 70
     0
  9
$USERI2
 70
     0
  9
$USERI3
 70
     0
  9
$USERI4
 70
     0
  9
$USERI5
 70
     0
  9
$USERR1
 40
0.0
  9
$USERR2
 40
0.0
  9
$USERR3
 40
0.0
  9
$USERR4
 40
0.0
  9
$USERR5
 40
0.0
  9
$WORLDVIEW
 70
     1
  9
$SHADEDGE
 70
     3
  9
$SHADEDIF
 70
    70
  9
$TILEMODE
 70
     1
  9
$MAXACTVP
 70
    64
  9
$PINSBASE
 10
0.0
 20
0.0
 30
0.0
  9
$PLIMCHECK
 70
     0
  9
$PEXTMIN
 10
1.0000000000E+20
 20
1.0000000000E+20
 30
1.0000000000E+20
  9
$PEXTMAX
 10
-1.0000000000E+20
 20
-1.0000000000E+20
 30
-1.0000000000E+20
  9
$PLIMMIN
 10
0.0
 20
0.0
  9
$PLIMMAX
 10
420.0
 20
297.0
  9
$UNITMODE
 70
     0
  9
$VISRETAIN
 70
     1
  9
$PLINEGEN
 70
     0
  9
$PSLTSCALE
 70
     1
  9
$TREEDEPTH
 70
  3020
  9
$CMLSTYLE
  2
Standard
  9
$CMLJUST
 70
     0
  9
$CMLSCALE
 40
20.0
  9
$PROXYGRAPHICS
 70
     1
  9
$MEASUREMENT
 70
     1
  9
$CELWEIGHT
370
    -1
  9
$ENDCAPS
280
     0
  9
$JOINSTYLE
280
     0
  9
$LWDISPLAY
290
     1
  9
$INSUNITS
 70
     4
  9
$HYPERLINKBASE
  1

  9
$STYLESHEET
  1

  9
$XEDIT
290
     1
  9
$CEPSNTYPE
380
     0
  9
$PSTYLEMODE
290
     1
  9
$FINGERPRINTGUID
  2
{76DF2EED-410A-4507-9BE9-05B8D56AAD88}
  9
$VERSIONGUID
  2
{FAEB1C32-E019-11D5-929B-00C0DF256EC4}
  9
$EXTNAMES
290
     1
  9
$PSVPSCALE
 40
0.0
  9
$OLESTARTUP
290
     0
  0
ENDSEC
  0
SECTION
  2
CLASSES
  0
CLASS
  1
ACDBDICTIONARYWDFLT
  2
AcDbDictionaryWithDefault
  3
ObjectDBX Classes
 90
        0
280
     0
281
     0
  0
CLASS
  1
VISUALSTYLE
  2
AcDbVisualStyle
  3
ObjectDBX Classes
 90
     4095
280
     0
281
     0
  0
CLASS
  1
MATERIAL
  2
AcDbMaterial
  3
ObjectDBX Classes
 90
     1153
280
     0
281
     0
  0
CLASS
  1
SCALE
  2
AcDbScale
  3
ObjectDBX Classes
 90
     1153
280
     0
281
     0
  0
CLASS
  1
SUN
  2
AcDbSun
  3
SCENEOE
 90
     1153
280
     0
281
     0
  0
CLASS
  1
ACDBPLACEHOLDER
  2
AcDbPlaceHolder
  3
ObjectDBX Classes
 90
        0
280
     0
281
     0
  0
CLASS
  1
LAYOUT
  2
AcDbLayout
  3
ObjectDBX Classes
 90
        0
280
     0
281
     0
  0
ENDSEC
  0
SECTION
  2
TABLES
  0
TABLE
  2
VPORT
  5
8
330
0
100
AcDbSymbolTable
 70
     1
  0
VPORT
  5
29
330
8
100
AcDbSymbolTableRecord
100
AcDbViewportTableRecord
  2
*Active
 70
     0
 10
0.0
 20
0.0
 11
1.0
 21
1.0
 12
7425.0
 22
5250.0
 13
0.0
 23
0.0
 14
10.0
 24
10.0
 15
10.0
 25
10.0
 16
0.0
 26
0.0
 36
1.0
 17
0.0
 27
0.0
 37
0.0
 40
10500.0
 41
1.4142857143
 42
50.0
 43
0.0
 44
0.0
 50
0.0
 51
0.0
 71
     0
 72
  2000
 73
     1
 74
     3
 75
     0
 76
     0
 77
     0
 78
     0
281
     0
 65
     1
110
0.0
120
0.0
130
0.0
111
1.0
121
0.0
131
0.0
112
0.0
122
1.0
132
0.0
 79
     0
146
0.0
  0
ENDTAB
  0
TABLE
  2
LTYPE
  5
5
330
0
100
AcDbSymbolTable
 70
     6
  0
LTYPE
  5
14
330
5
100
AcDbSymbolTableRecord
100
AcDbLinetypeTableRecord
  2
ByBlock
 70
     0
  3

 72
    65
 73
     0
 40
0.0
  0
LTYPE
  5
15
330
5
100
AcDbSymbolTableRecord
100
AcDbLinetypeTableRecord
  2
ByLayer
 70
     0
  3

 72
    65
 73
     0
 40
0.0
  0
LTYPE
  5
16
330
5
100
AcDbSymbolTableRecord
100
AcDbLinetypeTableRecord
  2
Continuous
 70
     0
  3
Solid line
 72
    65
 73
     0
 40
0.0
  0
LTYPE
  5
6A
330
5
100
AcDbSymbolTableRecord
100
AcDbLinetypeTableRecord
  2
HIDDEN
 70
     0
  3
Hidden __ __ __ __ __ __ __ __ __ __ __ __ __ __
 72
    65
 73
     2
 40
1.905
 49
1.27
 74
     0
 49
-0.635
 74
     0
  0
LTYPE
  5
6B
330
5
100
AcDbSymbolTableRecord
100
AcDbLinetypeTableRecord
  2
PHANTOM
 70
     0
  3
Phantom ______  __  __  ______  __  __  ______
 72
    65
 73
     6
 40
12.7
 49
6.35
 74
     0
 49
-1.27
 74
     0
 49
1.27
 74
     0
 49
-1.27
 74
     0
 49
1.27
 74
     0
 49
-1.27
 74
     0
  0
LTYPE
  5
6C
330
5
100
AcDbSymbolTableRecord
100
AcDbLinetypeTableRecord
  2
CENTER
 70
     0
  3
Center ____ _ ____ _ ____ _ ____ _ ____ _ ____
 72
    65
 73
     4
 40
10.16
 49
6.35
 74
     0
 49
-1.27
 74
     0
 49
1.27
 74
     0
 49
-1.27
 74
     0
  0
LTYPE
  5
6D
330
5
100
AcDbSymbolTableRecord
100
AcDbLinetypeTableRecord
  2
CENTERX2
 70
     0
  3
Center (2x) ________  __  ________  __  _____
 72
    65
 73
     4
 40
20.32
 49
12.7
 74
     0
 49
-2.54
 74
     0
 49
2.54
 74
     0
 49
-2.54
 74
     0
  0
LTYPE
  5
6E
330
5
100
AcDbSymbolTableRecord
100
AcDbLinetypeTableRecord
  2
DOT2
 70
     0
  3
Dot (.5x) ........................................
 72
    65
 73
     2
 40
0.635
 49
0.0
 74
     0
 49
-0.635
 74
     0
  0
ENDTAB
  0
TABLE
  2
LAYER
  5
2
330
0
100
AcDbSymbolTable
 70
     2
  0
LAYER
  5
10
330
2
100
AcDbSymbolTableRecord
100
AcDbLayerTableRecord
  2
0
 70
     0
 62
     7
  6
Continuous
370
    -3
390
F
  0
LAYER
  5
6F
330
2
100
AcDbSymbolTableRecord
100
AcDbLayerTableRecord
  2
FORMAT
 70
     0
 62
     7
  6
Continuous
370
    -3
390
F
  0
ENDTAB
  0
TABLE
  2
STYLE
  5
3
330
0
100
AcDbSymbolTable
 70
     3
  0
STYLE
  5
11
330
3
100
AcDbSymbolTableRecord
100
AcDbTextStyleTableRecord
  2
Standard
 70
     0
 40
0.0
 41
1.0
 50
0.0
 71
     0
 42
175.0
  3
txt
  4

  0
STYLE
  5
8C
330
3
100
AcDbSymbolTableRecord
100
AcDbTextStyleTableRecord
  2
SLDTEXTSTYLE0
 70
     0
 40
0.0
 41
0.75
 50
0.0
 71
     0
 42
175.0
  3
TXT
  4

  0
STYLE
  5
94
330
3
100
AcDbSymbolTableRecord
100
AcDbTextStyleTableRecord
  2
SLDTEXTSTYLE1
 70
     0
 40
0.0
 41
0.6923076923
 50
0.0
 71
     0
 42
175.0
  3
TXT
  4

  0
ENDTAB
  0
TABLE
  2
VIEW
  5
6
330
0
100
AcDbSymbolTable
 70
     0
  0
ENDTAB
  0
TABLE
  2
UCS
  5
7
330
0
100
AcDbSymbolTable
 70
     0
  0
ENDTAB
  0
TABLE
  2
APPID
  5
9
330
0
100
AcDbSymbolTable
 70
     1
  0
APPID
  5
12
330
9
100
AcDbSymbolTableRecord
100
AcDbRegAppTableRecord
  2
ACAD
 70
     0
  0
ENDTAB
  0
TABLE
  2
DIMSTYLE
  5
A
330
0
100
AcDbSymbolTable
 70
     1
100
AcDbDimStyleTable
  0
DIMSTYLE
105
27
330
A
100
AcDbSymbolTableRecord
100
AcDbDimStyleTableRecord
  2
ISO-25
 70
     0
 41
2.5
 42
0.625
 43
3.75
 44
1.25
 73
     0
 74
     0
 77
     1
 78
     8
140
2.5
141
2.5
143
0.0393700787
147
0.625
171
     3
172
     1
178
     0
271
     2
272
     2
274
     3
278
    44
283
     0
284
     8
340
11
  0
ENDTAB
  0
TABLE
  2
BLOCK_RECORD
  5
1
330
0
100
AcDbSymbolTable
 70
     1
  0
BLOCK_RECORD
  5
1F
330
1
100
AcDbSymbolTableRecord
100
AcDbBlockTableRecord
  2
*Model_Space
340
22
  0
BLOCK_RECORD
  5
1B
330
1
100
AcDbSymbolTableRecord
100
AcDbBlockTableRecord
  2
*Paper_Space
340
1E
  0
BLOCK_RECORD
  5
23
330
1
100
AcDbSymbolTableRecord
100
AcDbBlockTableRecord
  2
*Paper_Space0
340
26
  0
ENDTAB
  0
ENDSEC
  0
SECTION
  2
BLOCKS
  0
BLOCK
  5
20
330
1F
100
AcDbEntity
  8
0
100
AcDbBlockBegin
  2
*Model_Space
 70
     0
 10
0.0
 20
0.0
 30
0.0
  3
*Model_Space
  1
*Model_Space
  0
ENDBLK
  5
21
330
1F
100
AcDbEntity
  8
0
100
AcDbBlockEnd
  0
BLOCK
  5
1C
330
1B
100
AcDbEntity
 67
     1
  8
0
100
AcDbBlockBegin
  2
*Paper_Space
 70
     0
 10
0.0
 20
0.0
 30
0.0
  3
*Paper_Space
  1
*Paper_Space
  0
ENDBLK
  5
1D
330
1B
100
AcDbEntity
 67
     1
  8
0
100
AcDbBlockEnd
  0
BLOCK
  5
24
330
23
100
AcDbEntity
  8
0
100
AcDbBlockBegin
  2
*Paper_Space0
 70
     0
 10
0.0
 20
0.0
 30
0.0
  3
*Paper_Space0
  1
*Paper_Space0
  0
ENDBLK
  5
25
330
23
100
AcDbEntity
  8
0
100
AcDbBlockEnd
  0
ENDSEC
  0
SECTION
  2
ENTITIES
  0
LINE
  5
70
330
1F
100
AcDbEntity
  8
0
  6
Continuous
 62
     7
370
     0
100
AcDbLine
 10
14600.0
 20
10250.0
 30
0.0
 11
14600.0
 21
250.0
 31
0.0
  0
LINE
  5
71
330
1F
100
AcDbEntity
  8
0
  6
Continuous
 62
     7
370
     0
100
AcDbLine
 10
7970.0
 20
1737.5
 30
0.0
 11
8706.5
 21
1737.5
 31
0.0
  0
LINE
  5
72
330
1F
100
AcDbEntity
  8
0
  6
Continuous
 62
     7
370
     0
100
AcDbLine
 10
10180.0
 20
1737.5
 30
0.0
 11
14600.0
 21
1737.5
 31
0.0
  0
LINE
  5
73
330
1F
100
AcDbEntity
  8
0
  6
Continuous
 62
     7
370
     0
100
AcDbLine
 10
7970.0
 20
462.5
 30
0.0
 11
14600.0
 21
462.5
 31
0.0
  0
LINE
  5
74
330
1F
100
AcDbEntity
  8
0
  6
Continuous
 62
     7
370
     0
100
AcDbLine
 10
7970.0
 20
1737.5
 30
0.0
 11
7970.0
 21
1418.75
 31
0.0
  0
LINE
  5
75
330
1F
100
AcDbEntity
  8
0
  6
Continuous
 62
     7
370
     0
100
AcDbLine
 10
14600.0
 20
1100.0
 30
0.0
 11
13950.0
 21
1100.0
 31
0.0
  0
LINE
  5
76
330
1F
100
AcDbEntity
  8
0
  6
Continuous
 62
     7
370
     0
100
AcDbLine
 10
9443.0
 20
1100.0
 30
0.0
 11
10180.0
 21
1100.0
 31
0.0
  0
LINE
  5
77
330
1F
100
AcDbEntity
  8
0
  6
Continuous
 62
     7
370
     0
100
AcDbLine
 10
10180.0
 20
1737.5
 30
0.0
 11
10180.0
 21
250.0
 31
0.0
  0
LINE
  5
78
330
1F
100
AcDbEntity
  8
0
  6
Continuous
 62
     7
370
     0
100
AcDbLine
 10
12390.0
 20
250.0
 30
0.0
 11
12390.0
 21
462.5
 31
0.0
  0
LINE
  5
79
330
1F
100
AcDbEntity
  8
0
  6
Continuous
 62
     7
370
     0
100
AcDbLine
 10
8706.5
 20
1737.5
 30
0.0
 11
9443.0
 21
1737.5
 31
0.0
  0
LINE
  5
7A
330
1F
100
AcDbEntity
  8
0
  6
Continuous
 62
     7
370
     0
100
AcDbLine
 10
13950.0
 20
462.5
 30
0.0
 11
13950.0
 21
774.7484680088
 31
0.0
  0
LINE
  5
7B
330
1F
100
AcDbEntity
  8
0
  6
Continuous
 62
     7
370
     0
100
AcDbLine
 10
9443.0
 20
1737.5
 30
0.0
 11
10180.0
 21
1737.5
 31
0.0
  0
LINE
  5
7C
330
1F
100
AcDbEntity
  8
0
  6
Continuous
 62
     7
370
     0
100
AcDbLine
 10
14600.0
 20
774.7484680088
 30
0.0
 11
13950.0
 21
774.7484680088
 31
0.0
  0
LINE
  5
7D
330
1F
100
AcDbEntity
  8
0
  6
Continuous
 62
     7
370
     0
100
AcDbLine
 10
10180.0
 20
1100.0
 30
0.0
 11
13950.0
 21
1100.0
 31
0.0
  0
LINE
  5
7E
330
1F
100
AcDbEntity
  8
0
  6
Continuous
 62
     7
370
     0
100
AcDbLine
 10
9443.0
 20
1737.5
 30
0.0
 11
9443.0
 21
1100.0
 31
0.0
  0
LINE
  5
7F
330
1F
100
AcDbEntity
  8
0
  6
Continuous
 62
     7
370
     0
100
AcDbLine
 10
9443.0
 20
1100.0
 30
0.0
 11
8706.5
 21
1100.0
 31
0.0
  0
LINE
  5
80
330
1F
100
AcDbEntity
  8
0
  6
Continuous
 62
     7
370
     0
100
AcDbLine
 10
14600.0
 20
10250.0
 30
0.0
 11
250.0
 21
10250.0
 31
0.0
  0
LINE
  5
81
330
1F
100
AcDbEntity
  8
0
  6
Continuous
 62
     7
370
     0
100
AcDbLine
 10
250.0
 20
10250.0
 30
0.0
 11
250.0
 21
250.0
 31
0.0
  0
LINE
  5
82
330
1F
100
AcDbEntity
  8
0
  6
Continuous
 62
     7
370
     0
100
AcDbLine
 10
250.0
 20
250.0
 30
0.0
 11
14600.0
 21
250.0
 31
0.0
  0
LINE
  5
83
330
1F
100
AcDbEntity
  8
0
  6
Continuous
 62
     7
370
     0
100
AcDbLine
 10
8706.5
 20
1100.0
 30
0.0
 11
8706.5
 21
1737.5
 31
0.0
  0
LINE
  5
84
330
1F
100
AcDbEntity
  8
0
  6
Continuous
 62
     7
370
     0
100
AcDbLine
 10
8706.5
 20
1100.0
 30
0.0
 11
7970.0
 21
1100.0
 31
0.0
  0
LINE
  5
85
330
1F
100
AcDbEntity
  8
0
  6
Continuous
 62
     7
370
     0
100
AcDbLine
 10
13950.0
 20
774.7484680088
 30
0.0
 11
13950.0
 21
1100.0
 31
0.0
  0
LINE
  5
86
330
1F
100
AcDbEntity
  8
0
  6
Continuous
 62
     7
370
     0
100
AcDbLine
 10
7970.0
 20
1418.75
 30
0.0
 11
8706.5
 21
1418.75
 31
0.0
  0
LINE
  5
87
330
1F
100
AcDbEntity
  8
0
  6
Continuous
 62
     7
370
     0
100
AcDbLine
 10
8706.5
 20
1418.75
 30
0.0
 11
9443.0
 21
1418.75
 31
0.0
  0
LINE
  5
88
330
1F
100
AcDbEntity
  8
0
  6
Continuous
 62
     7
370
     0
100
AcDbLine
 10
9443.0
 20
1418.75
 30
0.0
 11
10180.0
 21
1418.75
 31
0.0
  0
LINE
  5
89
330
1F
100
AcDbEntity
  8
0
  6
Continuous
 62
     7
370
     0
100
AcDbLine
 10
7970.0
 20
1100.0
 30
0.0
 11
7970.0
 21
1418.75
 31
0.0
  0
LINE
  5
8A
330
1F
100
AcDbEntity
  8
0
  6
Continuous
 62
     7
370
     0
100
AcDbLine
 10
7970.0
 20
1100.0
 30
0.0
 11
7970.0
 21
462.5
 31
0.0
  0
LINE
  5
8B
330
1F
100
AcDbEntity
  8
0
  6
Continuous
 62
     7
370
     0
100
AcDbLine
 10
7970.0
 20
250.0
 30
0.0
 11
7970.0
 21
462.5
 31
0.0
  0
MTEXT
  5
8D
330
1F
100
AcDbEntity
  8
0
  6
Continuous
 62
     7
370
     0
100
AcDbMText
 10
14013.846863997
 20
971.6222473842
 30
0.0
 40
75.0
 41
0.0
 71
     1
 72
     1
  1
Blattformat
  7
SLDTEXTSTYLE0
 73
     1
 44
1.0
  0
MTEXT
  5
8E
330
1F
100
AcDbEntity
  8
0
  6
Continuous
 62
     7
370
     0
100
AcDbMText
 10
8118.2120446351
 20
1293.7465234676
 30
0.0
 40
75.0
 41
0.0
 71
     1
 72
     1
  1
Ch. Höfig
  7
SLDTEXTSTYLE0
 73
     1
 44
1.0
  0
MTEXT
  5
8F
330
1F
100
AcDbEntity
  8
0
  6
Continuous
 62
     7
370
     0
100
AcDbMText
 10
8338.8098912947
 20
1610.1782907916
 30
0.0
 40
75.0
 41
0.0
 71
     2
 72
     1
  1
Name
  7
SLDTEXTSTYLE0
 73
     1
 44
1.0
  0
MTEXT
  5
90
330
1F
100
AcDbEntity
  8
0
  6
Continuous
 62
     7
370
     0
100
AcDbMText
 10
8022.2931154381
 20
1049.3028144623
 30
0.0
 40
75.0
 41
0.0
 71
     1
 72
     1
  1
Werkstoff:
  7
SLDTEXTSTYLE0
 73
     1
 44
1.0
  0
MTEXT
  5
91
330
1F
100
AcDbEntity
  8
0
  6
Continuous
 62
     7
370
     0
100
AcDbMText
 10
10243.2492951712
 20
1612.3050731487
 30
0.0
 40
75.0
 41
0.0
 71
     1
 72
     1
  1
Artikelnummer
  7
SLDTEXTSTYLE0
 73
     1
 44
1.0
  0
MTEXT
  5
92
330
1F
100
AcDbEntity
  8
0
  6
Continuous
 62
     7
370
     0
100
AcDbMText
 10
10243.6983058746
 20
993.4318913516
 30
0.0
 40
75.0
 41
0.0
 71
     1
 72
     1
  1
Hersteller
  7
SLDTEXTSTYLE0
 73
     1
 44
1.0
  0
MTEXT
  5
93
330
1F
100
AcDbEntity
  8
0
  6
Continuous
 62
     7
370
     0
100
AcDbMText
 10
10243.6983058746
 20
395.0043637266
 30
0.0
 40
75.0
 41
0.0
 71
     1
 72
     1
  1
Massstab: 1:50
  7
SLDTEXTSTYLE0
 73
     1
 44
1.0
  0
MTEXT
  5
95
330
1F
100
AcDbEntity
  8
0
  6
Continuous
 62
     7
370
     0
100
AcDbMText
 10
12463.9147213908
 20
395.0043637266
 30
0.0
 40
75.0
 41
0.0
 71
     1
 72
     1
  1
Blatt 1 von 1
  7
SLDTEXTSTYLE1
 73
     1
 44
1.0
  0
MTEXT
  5
96
330
1F
100
AcDbEntity
  8
0
  6
Continuous
 62
     7
370
     0
100
AcDbMText
 10
14150.9100625978
 20
710.7246793997
 30
0.0
 40
145.5208333333
 41
0.0
 71
     1
 72
     1
  1
A4
  7
SLDTEXTSTYLE0
 73
     1
 44
1.0
  0
MTEXT
  5
97
330
1F
100
AcDbEntity
  8
0
  6
Continuous
 62
     7
370
     0
100
AcDbMText
 10
12239.2860540881
 20
914.3859686823
 30
0.0
 40
264.5833333333
 41
0.0
 71
     2
 72
     1
  1
Feldmann GmbH
  7
SLDTEXTSTYLE0
 73
     1
 44
1.0
  0
MTEXT
  5
98
330
1F
100
AcDbEntity
  8
0
  6
Continuous
 62
     7
370
     0
100
AcDbMText
 10
9812.717449829
 20
1610.1782907916
 30
0.0
 40
75.0
 41
0.0
 71
     2
 72
     1
  1
Datum
  7
SLDTEXTSTYLE0
 73
     1
 44
1.0
  0
MTEXT
  5
99
330
1F
100
AcDbEntity
  8
0
  6
Continuous
 62
     7
370
     0
100
AcDbMText
 10
9001.3375475168
 20
1293.7465234676
 30
0.0
 40
75.0
 41
0.0
 71
     1
 72
     1
  1
CH
  7
SLDTEXTSTYLE0
 73
     1
 44
1.0
  0
MTEXT
  5
9A
330
1F
100
AcDbEntity
  8
0
  6
Continuous
 62
     7
370
     0
100
AcDbMText
 10
9569.8649653201
 20
1293.848354147
 30
0.0
 40
75.0
 41
0.0
 71
     1
 72
     1
  1
01.09.2014
  7
SLDTEXTSTYLE0
 73
     1
 44
1.0
  0
MTEXT
  5
9B
330
1F
100
AcDbEntity
  8
0
  6
Continuous
 62
     7
370
     0
100
AcDbMText
 10
9079.0611809827
 20
395.6218184716
 30
0.0
 40
75.0
 41
0.0
 71
     2
 72
     1
  1
Gewicht 3.465 kg
  7
SLDTEXTSTYLE0
 73
     1
 44
1.0
  0
MTEXT
  5
9C
330
1F
100
AcDbEntity
  8
0
  6
Continuous
 62
     7
370
     0
100
AcDbMText
 10
9075.9413027092
 20
779.8860092213
 30
0.0
 40
119.0625
 41
0.0
 71
     2
 72
     1
  1
1.0037 (S235JR)
  7
SLDTEXTSTYLE0
 73
     1
 44
1.0
  0
MTEXT
  5
9D
330
1F
100
AcDbEntity
  8
0
  6
Continuous
 62
     7
370
     0
100
AcDbMText
 10
11531.0409986066
 20
1468.8109809734
 30
0.0
 40
211.6666666667
 41
0.0
 71
     2
 72
     1
  1
6103
  7
SLDTEXTSTYLE0
 73
     1
 44
1.0
  0
MTEXT
  5
9E
330
1F
100
AcDbEntity
  8
0
  6
Continuous
 62
     7
370
     0
100
AcDbMText
 10
9087.6500891234
 20
1602.9519504981
 30
0.0
 40
75.0
 41
0.0
 71
     2
 72
     1
  1
Signatur
  7
SLDTEXTSTYLE0
 73
     1
 44
1.0
  0
ARC
  5
9F
330
1F
100
AcDbEntity
  8
0
  6
Continuous
 62
     7
370
    15
100
AcDbCircle
 10
3874.1409564015
 20
8548.0126586041
 30
0.0
 40
22.7930105084672
100
AcDbArc
 50
132.5559411307
 51
134.6399895242
  0
ARC
  5
A0
330
1F
100
AcDbEntity
  8
0
  6
Continuous
 62
     7
370
    15
100
AcDbCircle
 10
3874.1243392327
 20
8548.0294857968
 30
0.0
 40
22.76936130742538
100
AcDbArc
 50
134.639989307
 51
136.7254805832
  0
ARC
  5
A1
330
1F
100
AcDbEntity
  8
0
  6
Continuous
 62
     7
370
    15
100
AcDbCircle
 10
3874.1071671065
 20
8548.0456508235
 30
0.0
 40
22.7457776265586
100
AcDbArc
 50
136.7254755324
 51
138.810791213
  0
ARC
  5
A2
330
1F
100
AcDbEntity
  8
0
  6
Continuous
 62
     7
370
    15
100
AcDbCircle
 10
3858.7635550589
 20
8561.4728395551
 30
0.0
 40
2.356667104027408
100
AcDbArc
 50
138.810343385
 51
142.7518317151
  0
ARC
  5
A3
330
1F
100
AcDbEntity
  8
0
  6
Continuous
 62
     7
370
    15
100
AcDbCircle
 10
3858.7600208944
 20
8561.4755277039
 30
0.0
 40
2.35222678177447
100
AcDbArc
 50
142.7518488957
 51
146.6982969022
  0
ARC
  5
A4
330
1F
100
AcDbEntity
  8
0
  6
Continuous
 62
     7
370
    15
100
AcDbCircle
 10
3858.7564933496
 20
8561.477846289
 30
0.0
 40
2.34800547771449
100
AcDbArc
 50
146.6983228259
 51
150.6495003658
  0
ARC
  5
A5
330
1F
100
AcDbEntity
  8
0
  6
Continuous
 62
     7
370
    15
100
AcDbCircle
 10
3858.7530743649
 20
8561.4797705046
 30
0.0
 40
2.344082206106198
100
AcDbArc
 50
150.6495345938
 51
154.6051204784
  0
ARC
  5
A6
330
1F
100
AcDbEntity
  8
0
  6
Continuous
 62
     7
370
    15
100
AcDbCircle
 10
3858.7498663779
 20
8561.4812953132
 30
0.0
 40
2.340530274404639
100
AcDbArc
 50
154.6051623997
 51
158.5647499978
  0
ARC
  5
A7
330
1F
100
AcDbEntity
  8
0
  6
Continuous
 62
     7
370
    15
100
AcDbCircle
 10
3858.7469681909
 20
8561.4824352982
 30
0.0
 40
2.337415944588409
100
AcDbArc
 50
158.5647988381
 51
162.5279034726
  0
ARC
  5
A8
330
1F
100
AcDbEntity
  8
0
  6
Continuous
 62
     7
370
    15
100
AcDbCircle
 10
3858.7444709673
 20
8561.4832236755
 30
0.0
 40
2.334797231258604
100
AcDbArc
 50
162.5279583075
 51
166.494026326
  0
ARC
  5
A9
330
1F
100
AcDbEntity
  8
0
  6
Continuous
 62
     7
370
    15
100
AcDbCircle
 10
3858.7424545258
 20
8561.4837105054
 30
0.0
 40
2.332722855775646
100
AcDbArc
 50
166.4940860987
 51
170.4625054541
  0
ARC
  5
AA
330
1F
100
AcDbEntity
  8
0
  6
Continuous
 62
     7
370
    15
100
AcDbCircle
 10
3840.9874304917
 20
8564.4667744593
 30
0.0
 40
15.67115308819829
100
AcDbArc
 50
348.6089096893
 51
350.4626991457
  0
ARC
  5
AB
330
1F
100
AcDbEntity
  8
0
  6
Continuous
 62
     7
370
    15
100
AcDbCircle
 10
3840.9819868592
 20
8564.4678729696
 30
0.0
 40
15.67670645258623
100
AcDbArc
 50
346.7555517435
 51
348.608903375
  0
ARC
  5
AC
330
1F
100
AcDbEntity
  8
0
  6
Continuous
 62
     7
370
    15
100
AcDbCircle
 10
3840.9757584385
 20
8564.4693406529
 30
0.0
 40
15.68310546158316
100
AcDbArc
 50
344.9026981804
 51
346.7555456204
  0
ARC
  5
AD
330
1F
100
AcDbEntity
  8
0
  6
Continuous
 62
     7
370
    15
100
AcDbCircle
 10
3840.9687893128
 20
8564.4712223064
 30
0.0
 40
15.69032414082798
100
AcDbArc
 50
343.0504134691
 51
344.9026925706
  0
ARC
  5
AE
330
1F
100
AcDbEntity
  8
0
  6
Continuous
 62
     7
370
    15
100
AcDbCircle
 10
3858.2100002708
 20
8559.2166071479
 30
0.0
 40
2.333835638921898
100
AcDbArc
 50
163.04966858
 51
169.4556333316
  0
ARC
  5
AF
330
1F
100
AcDbEntity
  8
0
  6
Continuous
 62
     7
370
    15
100
AcDbCircle
 10
3858.2073999759
 20
8559.2171020802
 30
0.0
 40
2.331188682906409
100
AcDbArc
 50
169.4558970235
 51
175.8667124815
  0
ARC
  5
B0
330
1F
100
AcDbEntity
  8
0
  6
Continuous
 62
     7
370
    15
100
AcDbCircle
 10
3858.2063467125
 20
8559.2171896227
 30
0.0
 40
2.330131849161964
100
AcDbArc
 50
175.8669927685
 51
182.2797475043
  0
ARC
  5
B1
330
1F
100
AcDbEntity
  8
0
  6
Continuous
 62
     7
370
    15
100
AcDbCircle
 10
3858.206930104
 20
8559.2172243447
 30
0.0
 40
2.330716160214227
100
AcDbArc
 50
182.2800299136
 51
188.6917123544
  0
LINE
  5
B2
330
1F
100
AcDbEntity
  8
0
  6
Continuous
 62
     7
370
    15
100
AcDbLine
 10
3855.9029803282
 20
8558.8650115328
 30
0.0
 11
3856.0669960125
 21
8557.792080313
 31
0.0
  0
ARC
  5
B3
330
1F
100
AcDbEntity
  8
0
  6
Continuous
 62
     7
370
    15
100
AcDbCircle
 10
3858.372972533
 20
8558.1446088605
 30
0.0
 40
2.332767353584733
100
AcDbArc
 50
188.6918561147
 51
194.4878351762
  0
ARC
  5
B4
330
1F
100
AcDbEntity
  8
0
  6
Continuous
 62
     7
370
    15
100
AcDbCircle
 10
3858.3760959979
 20
8558.1454236253
 30
0.0
 40
2.335995328045449
100
AcDbArc
 50
194.4880177769
 51
200.2786539365
  0
ARC
  5
B5
330
1F
100
AcDbEntity
  8
0
  6
Continuous
 62
     7
370
    15
100
AcDbCircle
 10
3858.3801644132
 20
8558.146933727
 30
0.0
 40
2.340334955794678
100
AcDbArc
 50
200.27881175
 51
206.0622843808
  0
ARC
  5
B6
330
1F
100
AcDbEntity
  8
0
  6
Continuous
 62
     7
370
    15
100
AcDbCircle
 10
3858.3849045236
 20
8558.1492577862
 30
0.0
 40
2.345614148053883
100
AcDbArc
 50
206.0624110106
 51
211.837198951
  0
LINE
  5
B7
330
1F
100
AcDbEntity
  8
0
  6
Continuous
 62
     7
370
    15
100
AcDbLine
 10
3856.3921873128
 20
8556.911928908
 30
0.0
 11
3857.6824914335
 21
8554.8337987653
 31
0.0
  0
ARC
  5
B8
330
1F
100
AcDbEntity
  8
0
  6
Continuous
 62
     7
370
    15
100
AcDbCircle
 10
3859.6792833989
 20
8556.0736233515
 30
0.0
 40
2.350392096798402
100
AcDbArc
 50
211.8364806676
 51
215.3430375058
  0
ARC
  5
B9
330
1F
100
AcDbEntity
  8
0
  6
Continuous
 62
     7
370
    15
100
AcDbCircle
 10
3859.6824311686
 20
8556.0758564051
 30
0.0
 40
2.354251498630514
100
AcDbArc
 50
215.3430525285
 51
218.8457754475
  0
ARC
  5
BA
330
1F
100
AcDbEntity
  8
0
  6
Continuous
 62
     7
370
    15
100
AcDbCircle
 10
3859.6855480283
 20
8556.078367029
 30
0.0
 40
2.358253753766721
100
AcDbArc
 50
218.8457849411
 51
222.3445430803
  0
ARC
  5
BB
330
1F
100
AcDbEntity
  8
0
  6
Continuous
 62
     7
370
    15
100
AcDbCircle
 10
3859.6885678051
 20
8556.0811193242
 30
0.0
 40
2.362339605098095
100
AcDbArc
 50
222.3445469397
 51
225.8392690389
  0
ARC
  5
BC
330
1F
100
AcDbEntity
  8
0
  6
Continuous
 62
     7
370
    15
100
AcDbCircle
 10
3859.6914303847
 20
8556.0840669125
 30
0.0
 40
2.366448453917
100
AcDbArc
 50
225.8392672452
 51
229.3299423045
  0
ARC
  5
BD
330
1F
100
AcDbEntity
  8
0
  6
Continuous
 62
     7
370
    15
100
AcDbCircle
 10
3859.694083566
 20
8556.0871543143
 30
0.0
 40
2.370519254920648
100
AcDbArc
 50
229.3299349233
 51
232.8166119522
  0
ARC
  5
BE
330
1F
100
AcDbEntity
  8
0
  6
Continuous
 62
     7
370
    15
100
AcDbCircle
 10
3859.6964846419
 20
8556.0903186409
 30
0.0
 40
2.374491424090855
100
AcDbArc
 50
232.8165991302
 51
236.2993860138
  0
ARC
  5
BF
330
1F
100
AcDbEntity
  8
0
  6
Continuous
 62
     7
370
    15
100
AcDbCircle
 10
3859.698601654
 20
8556.0934915435
 30
0.0
 40
2.378305745843345
100
AcDbArc
 50
236.2993679742
 51
239.7784294961
  0
LINE
  5
C0
330
1F
100
AcDbEntity
  8
0
  6
Continuous
 62
     7
370
    15
100
AcDbLine
 10
3858.5014927803
 20
8554.0384325227
 30
0.0
 11
3860.0575006703
 21
8553.1320135138
 31
0.0
  0
ARC
  5
C1
330
1F
100
AcDbEntity
  8
0
  6
Continuous
 62
     7
370
    15
100
AcDbCircle
 10
3861.2566158742
 20
8555.1905328089
 30
0.0
 40
2.38230556724029
100
AcDbArc
 50
239.7786243069
 51
244.0644577879
  0
ARC
  5
C2
330
1F
100
AcDbEntity
  8
0
  6
Continuous
 62
     7
370
    15
100
AcDbCircle
 10
3861.2583758964
 20
8555.1941466217
 30
0.0
 40
2.386325183655358
100
AcDbArc
 50
244.0644042869
 51
248.3454224749
  0
ARC
  5
C3
330
1F
100
AcDbEntity
  8
0
  6
Continuous
 62
     7
370
    15
100
AcDbCircle
 10
3861.2596737972
 20
8555.1974085553
 30
0.0
 40
2.389835846082664
100
AcDbArc
 50
248.3453597651
 51
252.6221834087
  0
ARC
  5
C4
330
1F
100
AcDbEntity
  8
0
  6
Continuous
 62
     7
370
    15
100
AcDbCircle
 10
3861.2605492196
 20
8555.2001959674
 30
0.0
 40
2.392757493231501
100
AcDbArc
 50
252.6221128987
 51
256.8954535774
  0
LINE
  5
C5
330
1F
100
AcDbEntity
  8
0
  6
Continuous
 62
     7
370
    15
100
AcDbLine
 10
3862.2942038482
 20
8552.5028236239
 30
0.0
 11
3860.7180426033
 21
8552.8697507484
 31
0.0
  0
ARC
  5
C6
330
1F
100
AcDbEntity
  8
0
  6
Continuous
 62
     7
370
    15
100
AcDbCircle
 10
3862.8373187952
 20
8554.8359338871
 30
0.0
 40
2.395490876309923
100
AcDbArc
 50
256.895731316
 51
263.4497190836
  0
ARC
  5
C7
330
1F
100
AcDbEntity
  8
0
  6
Continuous
 62
     7
370
    15
100
AcDbCircle
 10
3862.8375347249
 20
8554.8377043472
 30
0.0
 40
2.39727441131027
100
AcDbArc
 50
263.4494190218
 51
270.0001538871
  0
ARC
  5
C8
330
1F
100
AcDbEntity
  8
0
  6
Continuous
 62
     7
370
    15
100
AcDbCircle
 10
3862.8375476022
 20
8554.8377043472
 30
0.0
 40
2.39727441131027
100
AcDbArc
 50
269.9998461129
 51
276.5505809782
  0
ARC
  5
C9
330
1F
100
AcDbEntity
  8
0
  6
Continuous
 62
     7
370
    15
100
AcDbCircle
 10
3862.8377635319
 20
8554.8359338871
 30
0.0
 40
2.395490876310026
100
AcDbArc
 50
276.5502809164
 51
283.104268684
  0
LINE
  5
CA
330
1F
100
AcDbEntity
  8
0
  6
Continuous
 62
     7
370
    15
100
AcDbLine
 10
3863.3808784789
 20
8552.5028236239
 30
0.0
 11
3864.9570397238
 21
8552.8697507484
 31
0.0
  0
ARC
  5
CB
330
1F
100
AcDbEntity
  8
0
  6
Continuous
 62
     7
370
    15
100
AcDbCircle
 10
3864.4145331075
 20
8555.2001959674
 30
0.0
 40
2.392757493231192
100
AcDbArc
 50
283.1045464226
 51
287.3778871013
  0
ARC
  5
CC
330
1F
100
AcDbEntity
  8
0
  6
Continuous
 62
     7
370
    15
100
AcDbCircle
 10
3864.4154085299
 20
8555.1974085553
 30
0.0
 40
2.389835846081141
100
AcDbArc
 50
287.3778165913
 51
291.6546402349
  0
ARC
  5
CD
330
1F
100
AcDbEntity
  8
0
  6
Continuous
 62
     7
370
    15
100
AcDbCircle
 10
3864.4167064307
 20
8555.1941466217
 30
0.0
 40
2.386325183657193
100
AcDbArc
 50
291.6545775251
 51
295.9355957131
  0
ARC
  5
CE
330
1F
100
AcDbEntity
  8
0
  6
Continuous
 62
     7
370
    15
100
AcDbCircle
 10
3864.4184664529
 20
8555.1905328089
 30
0.0
 40
2.382305567240688
100
AcDbArc
 50
295.9355422122
 51
300.2213756932
  0
LINE
  5
CF
330
1F
100
AcDbEntity
  8
0
  6
Continuous
 62
     7
370
    15
100
AcDbLine
 10
3867.1735895468
 20
8554.0384325227
 30
0.0
 11
3865.6175816568
 21
8553.1320135138
 31
0.0
  0
ARC
  5
D0
330
1F
100
AcDbEntity
  8
0
  6
Continuous
 62
     7
370
    15
100
AcDbCircle
 10
3865.9764806731
 20
8556.0934915435
 30
0.0
 40
2.378305745844102
100
AcDbArc
 50
300.221570504
 51
303.7006320259
  0
ARC
  5
D1
330
1F
100
AcDbEntity
  8
0
  6
Continuous
 62
     7
370
    15
100
AcDbCircle
 10
3865.9785976852
 20
8556.0903186409
 30
0.0
 40
2.37449142409136
100
AcDbArc
 50
303.7006139862
 51
307.1834008699
  0
ARC
  5
D2
330
1F
100
AcDbEntity
  8
0
  6
Continuous
 62
     7
370
    15
100
AcDbCircle
 10
3865.9809987611
 20
8556.0871543143
 30
0.0
 40
2.370519254921241
100
AcDbArc
 50
307.1833880478
 51
310.6700650767
  0
ARC
  5
D3
330
1F
100
AcDbEntity
  8
0
  6
Continuous
 62
     7
370
    15
100
AcDbCircle
 10
3865.9836519424
 20
8556.0840669125
 30
0.0
 40
2.366448453917
100
AcDbArc
 50
310.6700576955
 51
314.1607327548
  0
ARC
  5
D4
330
1F
100
AcDbEntity
  8
0
  6
Continuous
 62
     7
370
    15
100
AcDbCircle
 10
3865.986514522
 20
8556.0811193242
 30
0.0
 40
2.362339605098095
100
AcDbArc
 50
314.1607309611
 51
317.6554530603
  0
ARC
  5
D5
330
1F
100
AcDbEntity
  8
0
  6
Continuous
 62
     7
370
    15
100
AcDbCircle
 10
3865.9895342988
 20
8556.078367029
 30
0.0
 40
2.35825375376381
100
AcDbArc
 50
317.6554569197
 51
321.1542150589
  0
ARC
  5
D6
330
1F
100
AcDbEntity
  8
0
  6
Continuous
 62
     7
370
    15
100
AcDbCircle
 10
3865.9926511585
 20
8556.0758564051
 30
0.0
 40
2.354251498630868
100
AcDbArc
 50
321.1542245525
 51
324.6569474715
  0
ARC
  5
D7
330
1F
100
AcDbEntity
  8
0
  6
Continuous
 62
     7
370
    15
100
AcDbCircle
 10
3865.9957989282
 20
8556.0736233515
 30
0.0
 40
2.350392096796857
100
AcDbArc
 50
324.6569624942
 51
328.1635193324
  0
LINE
  5
D8
330
1F
100
AcDbEntity
  8
0
  6
Continuous
 62
     7
370
    15
100
AcDbLine
 10
3869.2828950143
 20
8556.911928908
 30
0.0
 11
3867.9925908936
 21
8554.8337987653
 31
0.0
  0
ARC
  5
D9
330
1F
100
AcDbEntity
  8
0
  6
Continuous
 62
     7
370
    15
100
AcDbCircle
 10
3867.2901778035
 20
8558.1492577862
 30
0.0
 40
2.345614148053883
100
AcDbArc
 50
328.162801049
 51
333.9375889894
  0
ARC
  5
DA
330
1F
100
AcDbEntity
  8
0
  6
Continuous
 62
     7
370
    15
100
AcDbCircle
 10
3867.2949179139
 20
8558.146933727
 30
0.0
 40
2.340334955793861
100
AcDbArc
 50
333.9377156192
 51
339.72118825
  0
ARC
  5
DB
330
1F
100
AcDbEntity
  8
0
  6
Continuous
 62
     7
370
    15
100
AcDbCircle
 10
3867.2989863293
 20
8558.1454236253
 30
0.0
 40
2.335995328045449
100
AcDbArc
 50
339.7213460635
 51
345.5119822231
  0
ARC
  5
DC
330
1F
100
AcDbEntity
  8
0
  6
Continuous
 62
     7
370
    15
100
AcDbCircle
 10
3867.3021097941
 20
8558.1446088605
 30
0.0
 40
2.332767353584733
100
AcDbArc
 50
345.5121648238
 51
351.3081438853
  0
LINE
  5
DD
330
1F
100
AcDbEntity
  8
0
  6
Continuous
 62
     7
370
    15
100
AcDbLine
 10
3869.7721019989
 20
8558.8650115328
 30
0.0
 11
3869.6080863146
 21
8557.792080313
 31
0.0
  0
ARC
  5
DE
330
1F
100
AcDbEntity
  8
0
  6
Continuous
 62
     7
370
    15
100
AcDbCircle
 10
3867.4681522231
 20
8559.2172243447
 30
0.0
 40
2.330716160227096
100
AcDbArc
 50
351.3082876456
 51
357.7199700608
  0
ARC
  5
DF
330
1F
100
AcDbEntity
  8
0
  6
Continuous
 62
     7
370
    15
100
AcDbCircle
 10
3867.4687356147
 20
8559.2171896227
 30
0.0
 40
2.330131849161858
100
AcDbArc
 50
357.7202524702
 51
4.1330072707
  0
ARC
  5
E0
330
1F
100
AcDbEntity
  8
0
  6
Continuous
 62
     7
370
    15
100
AcDbCircle
 10
3867.4676823512
 20
8559.2171020802
 30
0.0
 40
2.331188682928325
100
AcDbArc
 50
4.1332875577
 51
10.5441030804
  0
ARC
  5
E1
330
1F
100
AcDbEntity
  8
0
  6
Continuous
 62
     7
370
    15
100
AcDbCircle
 10
3867.4650820563
 20
8559.2166071479
 30
0.0
 40
2.333835638995105
100
AcDbArc
 50
10.5443667723
 51
16.9503315884
  0
ARC
  5
E2
330
1F
100
AcDbEntity
  8
0
  6
Continuous
 62
     7
370
    15
100
AcDbCircle
 10
3884.7062933112
 20
8564.4712213321
 30
0.0
 40
15.69032414082863
100
AcDbArc
 50
195.0973032662
 51
196.9495827864
  0
ARC
  5
E3
330
1F
100
AcDbEntity
  8
0
  6
Continuous
 62
     7
370
    15
100
AcDbCircle
 10
3884.6993238886
 20
8564.4693407793
 30
0.0
 40
15.68310546157543
100
AcDbArc
 50
193.2444543796
 51
195.0973018196
  0
ARC
  5
E4
330
1F
100
AcDbEntity
  8
0
  6
Continuous
 62
     7
370
    15
100
AcDbCircle
 10
3884.6930954679
 20
8564.467873096
 30
0.0
 40
15.67670645256946
100
AcDbArc
 50
191.391096625
 51
193.2444482565
  0
ARC
  5
E5
330
1F
100
AcDbEntity
  8
0
  6
Continuous
 62
     7
370
    15
100
AcDbCircle
 10
3884.6876518354
 20
8564.4667745857
 30
0.0
 40
15.67115308819829
100
AcDbArc
 50
189.5373008543
 51
191.3910903107
  0
ARC
  5
E6
330
1F
100
AcDbEntity
  8
0
  6
Continuous
 62
     7
370
    15
100
AcDbCircle
 10
3866.9326278013
 20
8561.4837106318
 30
0.0
 40
2.33272285577653
100
AcDbArc
 50
9.5374945459
 51
13.5059139013
  0
ARC
  5
E7
330
1F
100
AcDbEntity
  8
0
  6
Continuous
 62
     7
370
    15
100
AcDbCircle
 10
3866.9306113599
 20
8561.4832238019
 30
0.0
 40
2.334797231258697
100
AcDbArc
 50
13.505973674
 51
17.4720416925
  0
ARC
  5
E8
330
1F
100
AcDbEntity
  8
0
  6
Continuous
 62
     7
370
    15
100
AcDbCircle
 10
3866.9281141362
 20
8561.4824354246
 30
0.0
 40
2.337415944589277
100
AcDbArc
 50
17.4720965274
 51
21.4352011619
  0
ARC
  5
E9
330
1F
100
AcDbEntity
  8
0
  6
Continuous
 62
     7
370
    15
100
AcDbCircle
 10
3866.9252159492
 20
8561.4812954396
 30
0.0
 40
2.340530274405908
100
AcDbArc
 50
21.4352500022
 51
25.3948376003
  0
ARC
  5
EA
330
1F
100
AcDbEntity
  8
0
  6
Continuous
 62
     7
370
    15
100
AcDbCircle
 10
3866.9220079622
 20
8561.479770631
 30
0.0
 40
2.344082206106198
100
AcDbArc
 50
25.3948795216
 51
29.3504654062
  0
ARC
  5
EB
330
1F
100
AcDbEntity
  8
0
  6
Continuous
 62
     7
370
    15
100
AcDbCircle
 10
3866.9185889775
 20
8561.4778464154
 30
0.0
 40
2.348005477712409
100
AcDbArc
 50
29.3504996342
 51
33.3016771741
  0
ARC
  5
EC
330
1F
100
AcDbEntity
  8
0
  6
Continuous
 62
     7
370
    15
100
AcDbCircle
 10
3866.9150614327
 20
8561.4755278303
 30
0.0
 40
2.352226781774168
100
AcDbArc
 50
33.3017030978
 51
37.2481511043
  0
ARC
  5
ED
330
1F
100
AcDbEntity
  8
0
  6
Continuous
 62
     7
370
    15
100
AcDbCircle
 10
3866.9115272683
 20
8561.4728396815
 30
0.0
 40
2.356667104026307
100
AcDbArc
 50
37.2481682848
 51
41.189656615
  0
ARC
  5
EE
330
1F
100
AcDbEntity
  8
0
  6
Continuous
 62
     7
370
    15
100
AcDbCircle
 10
3851.5679152144
 20
8548.0456509443
 30
0.0
 40
22.74577763490567
100
AcDbArc
 50
41.1892087873
 51
43.2745252081
  0
ARC
  5
EF
330
1F
100
AcDbEntity
  8
0
  6
Continuous
 62
     7
370
    15
100
AcDbCircle
 10
3851.5507430884
 20
8548.0294859173
 30
0.0
 40
22.76936131582882
100
AcDbArc
 50
43.2745201573
 51
45.3600114328
  0
ARC
  5
F0
330
1F
100
AcDbEntity
  8
0
  6
Continuous
 62
     7
370
    15
100
AcDbCircle
 10
3851.5341259199
 20
8548.0126587245
 30
0.0
 40
22.79301051682661
100
AcDbArc
 50
45.3600112156
 51
47.4440596085
  0
ARC
  5
F1
330
1F
100
AcDbEntity
  8
0
  6
Continuous
 62
     7
370
    15
100
AcDbCircle
 10
3851.5181718331
 20
8547.9952825333
 30
0.0
 40
22.81660002518258
100
AcDbArc
 50
47.444058678
 51
49.52667062
  0
ARC
  5
F2
330
1F
100
AcDbEntity
  8
0
  6
Continuous
 62
     7
370
    15
100
AcDbCircle
 10
3864.7893935353
 20
8563.5485174642
 30
0.0
 40
2.370856157940028
100
AcDbArc
 50
49.5270421545
 51
53.2032866589
  0
ARC
  5
F3
330
1F
100
AcDbEntity
  8
0
  6
Continuous
 62
     7
370
    15
100
AcDbCircle
 10
3864.7868936766
 20
8563.5451765227
 30
0.0
 40
2.375028829015695
100
AcDbArc
 50
53.2032709332
 51
56.8752075912
  0
ARC
  5
F4
330
1F
100
AcDbEntity
  8
0
  6
Continuous
 62
     7
370
    15
100
AcDbCircle
 10
3864.7847134605
 20
8563.5418369208
 30
0.0
 40
2.379017097039749
100
AcDbArc
 50
56.875185461
 51
60.5430164246
  0
ARC
  5
F5
330
1F
100
AcDbEntity
  8
0
  6
Continuous
 62
     7
370
    15
100
AcDbCircle
 10
3864.7828743821
 20
8563.5385830381
 30
0.0
 40
2.382754738088567
100
AcDbArc
 50
60.5429882888
 51
64.2069819652
  0
ARC
  5
F6
330
1F
100
AcDbEntity
  8
0
  6
Continuous
 62
     7
370
    15
100
AcDbCircle
 10
3864.7813828936
 20
8563.5355000074
 30
0.0
 40
2.386179590585111
100
AcDbArc
 50
64.2069483115
 51
67.8674346266
  0
ARC
  5
F7
330
1F
100
AcDbEntity
  8
0
  6
Continuous
 62
     7
370
    15
100
AcDbCircle
 10
3864.780230421
 20
8563.5326707038
 30
0.0
 40
2.389234610948895
100
AcDbArc
 50
67.8673960217
 51
71.5247607911
  0
ARC
  5
F8
330
1F
100
AcDbEntity
  8
0
  6
Continuous
 62
     7
370
    15
100
AcDbCircle
 10
3864.7793939456
 20
8563.5301728015
 30
0.0
 40
2.391868847808886
100
AcDbArc
 50
71.5247178707
 51
75.1793963776
  0
ARC
  5
F9
330
1F
100
AcDbEntity
  8
0
  6
Continuous
 62
     7
370
    15
100
AcDbCircle
 10
3864.7788371298
 20
8563.5280760052
 30
0.0
 40
2.394038316493056
100
AcDbArc
 50
75.1793498366
 51
78.8318197285
  0
LINE
  5
FA
330
1F
100
AcDbEntity
  8
0
  6
Continuous
 62
     7
370
    15
100
AcDbLine
 10
3864.4669439081
 20
8566.0299054375
 30
0.0
 11
3865.2425373575
 21
8565.8767783111
 31
0.0
  0
ARC
  5
FB
330
1F
100
AcDbEntity
  8
0
  6
Continuous
 62
     7
370
    15
100
AcDbCircle
 10
3864.9307589219
 20
8568.3791465753
 30
0.0
 40
2.394589310516806
100
AcDbArc
 50
257.3196866104
 51
258.8316209041
  0
ARC
  5
FC
330
1F
100
AcDbEntity
  8
0
  6
Continuous
 62
     7
370
    15
100
AcDbCircle
 10
3864.9305878035
 20
8568.3783866975
 30
0.0
 40
2.393810403690471
100
AcDbArc
 50
255.8074274791
 51
257.3196900411
  0
LINE
  5
FD
330
1F
100
AcDbEntity
  8
0
  6
Continuous
 62
     7
370
    15
100
AcDbLine
 10
3863.4250361492
 20
8566.2899660906
 30
0.0
 11
3864.3436692791
 21
8566.0576420865
 31
0.0
  0
ARC
  5
FE
330
1F
100
AcDbEntity
  8
0
  6
Continuous
 62
     7
370
    15
100
AcDbCircle
 10
3862.8379960799
 20
8563.9687096622
 30
0.0
 40
2.394336628923625
100
AcDbArc
 50
75.8076126108
 51
79.3575458091
  0
ARC
  5
FF
330
1F
100
AcDbEntity
  8
0
  6
Continuous
 62
     7
370
    15
100
AcDbCircle
 10
3862.8377080823
 20
8563.9671873912
 30
0.0
 40
2.39588590228915
100
AcDbArc
 50
79.3575001018
 51
82.905902538
  0
ARC
  5
100
330
1F
100
AcDbEntity
  8
0
  6
Continuous
 62
     7
370
    15
100
AcDbCircle
 10
3862.8375768485
 20
8563.9661489837
 30
0.0
 40
2.396932567775484
100
AcDbArc
 50
82.9058550512
 51
86.4532242614
  0
ARC
  5
101
330
1F
100
AcDbEntity
  8
0
  6
Continuous
 62
     7
370
    15
100
AcDbCircle
 10
3862.8375421832
 20
8563.9656225514
 30
0.0
 40
2.397460136274373
100
AcDbArc
 50
86.4531756984
 51
93.5468731312
  0
ARC
  5
102
330
1F
100
AcDbEntity
  8
0
  6
Continuous
 62
     7
370
    15
100
AcDbCircle
 10
3862.8375054786
 20
8563.9661488573
 30
0.0
 40
2.396932567775428
100
AcDbArc
 50
93.5467757386
 51
97.0941449488
  0
ARC
  5
103
330
1F
100
AcDbEntity
  8
0
  6
Continuous
 62
     7
370
    15
100
AcDbCircle
 10
3862.8373742448
 20
8563.9671872648
 30
0.0
 40
2.395885902285407
100
AcDbArc
 50
97.094097462
 51
100.6424998982
  0
ARC
  5
104
330
1F
100
AcDbEntity
  8
0
  6
Continuous
 62
     7
370
    15
100
AcDbCircle
 10
3862.8370862472
 20
8563.9687095358
 30
0.0
 40
2.394336628921973
100
AcDbArc
 50
100.6424541909
 51
104.1923873893
  0
LINE
  5
105
330
1F
100
AcDbEntity
  8
0
  6
Continuous
 62
     7
370
    15
100
AcDbLine
 10
3862.2500461779
 20
8566.2899660906
 30
0.0
 11
3861.331413048
 21
8566.0576420865
 31
0.0
  0
ARC
  5
106
330
1F
100
AcDbEntity
  8
0
  6
Continuous
 62
     7
370
    15
100
AcDbCircle
 10
3860.7444945236
 20
8568.3783865711
 30
0.0
 40
2.393810403696318
100
AcDbArc
 50
282.6803099589
 51
284.1925725209
  0
ARC
  5
107
330
1F
100
AcDbEntity
  8
0
  6
Continuous
 62
     7
370
    15
100
AcDbCircle
 10
3860.7443234052
 20
8568.3791464489
 30
0.0
 40
2.394589310516894
100
AcDbArc
 50
281.1683790959
 51
282.6803133896
  0
LINE
  5
108
330
1F
100
AcDbEntity
  8
0
  6
Continuous
 62
     7
370
    15
100
AcDbLine
 10
3861.208138419
 20
8566.0299054375
 30
0.0
 11
3860.4325449696
 21
8565.8767778455
 31
0.0
  0
ARC
  5
109
330
1F
100
AcDbEntity
  8
0
  6
Continuous
 62
     7
370
    15
100
AcDbCircle
 10
3860.8962451973
 20
8563.5280758788
 30
0.0
 40
2.394038316490379
100
AcDbArc
 50
101.1681802715
 51
104.8206501634
  0
ARC
  5
10A
330
1F
100
AcDbEntity
  8
0
  6
Continuous
 62
     7
370
    15
100
AcDbCircle
 10
3860.8956883815
 20
8563.5301726751
 30
0.0
 40
2.391868847810899
100
AcDbArc
 50
104.8206036225
 51
108.4752821293
  0
ARC
  5
10B
330
1F
100
AcDbEntity
  8
0
  6
Continuous
 62
     7
370
    15
100
AcDbCircle
 10
3860.8948519062
 20
8563.5326705774
 30
0.0
 40
2.389234610950908
100
AcDbArc
 50
108.475239209
 51
112.1326039783
  0
ARC
  5
10C
330
1F
100
AcDbEntity
  8
0
  6
Continuous
 62
     7
370
    15
100
AcDbCircle
 10
3860.8936994335
 20
8563.535499881
 30
0.0
 40
2.386179590583817
100
AcDbArc
 50
112.1325653734
 51
115.7930516886
  0
ARC
  5
10D
330
1F
100
AcDbEntity
  8
0
  6
Continuous
 62
     7
370
    15
100
AcDbCircle
 10
3860.892207945
 20
8563.5385829117
 30
0.0
 40
2.382754738089927
100
AcDbArc
 50
115.7930180348
 51
119.4570117111
  0
ARC
  5
10E
330
1F
100
AcDbEntity
  8
0
  6
Continuous
 62
     7
370
    15
100
AcDbCircle
 10
3860.8903688666
 20
8563.5418367944
 30
0.0
 40
2.379017097041521
100
AcDbArc
 50
119.4569835753
 51
123.124814539
  0
ARC
  5
10F
330
1F
100
AcDbEntity
  8
0
  6
Continuous
 62
     7
370
    15
100
AcDbCircle
 10
3860.8881886505
 20
8563.5451763963
 30
0.0
 40
2.375028829015446
100
AcDbArc
 50
123.1247924088
 51
126.7967290668
  0
ARC
  5
110
330
1F
100
AcDbEntity
  8
0
  6
Continuous
 62
     7
370
    15
100
AcDbCircle
 10
3860.8856887918
 20
8563.5485173378
 30
0.0
 40
2.370856157939596
100
AcDbArc
 50
126.7967133411
 51
130.4729578456
  0
ARC
  5
111
330
1F
100
AcDbEntity
  8
0
  6
Continuous
 62
     7
370
    15
100
AcDbCircle
 10
3874.1569104886
 20
8547.9952824132
 30
0.0
 40
22.81660001686261
100
AcDbArc
 50
130.4733293797
 51
132.5559420613
  0
LINE
  5
112
330
1F
100
AcDbEntity
  8
0
  6
Continuous
 62
     7
370
    15
100
AcDbLine
 10
11252.7497255763
 20
8566.363082829
 30
0.0
 11
8252.7497255763
 21
8566.363082829
 31
0.0
  0
LINE
  5
113
330
1F
100
AcDbEntity
  8
0
  6
Continuous
 62
     7
370
    15
100
AcDbLine
 10
11252.7497255763
 20
8559.3851269873
 30
0.0
 11
8252.7497255763
 21
8559.3851269873
 31
0.0
  0
LINE
  5
114
330
1F
100
AcDbEntity
  8
0
  6
Continuous
 62
     7
370
    15
100
AcDbLine
 10
11252.7497255763
 20
8559.1245002375
 30
0.0
 11
8252.7497255763
 21
8559.1245002375
 31
0.0
  0
LINE
  5
115
330
1F
100
AcDbEntity
  8
0
  6
Continuous
 62
     7
370
    15
100
AcDbLine
 10
8252.7497255763
 20
8559.1245002375
 30
0.0
 11
8252.7497255763
 21
8559.3851269873
 31
0.0
  0
LINE
  5
116
330
1F
100
AcDbEntity
  8
0
  6
Continuous
 62
     7
370
    15
100
AcDbLine
 10
11252.7497255763
 20
8559.1245002375
 30
0.0
 11
11252.7497255763
 21
8559.3851269873
 31
0.0
  0
LINE
  5
117
330
1F
100
AcDbEntity
  8
0
  6
Continuous
 62
     7
370
    15
100
AcDbLine
 10
11252.7497255763
 20
8558.8650115328
 30
0.0
 11
8252.7497255763
 21
8558.8650115328
 31
0.0
  0
LINE
  5
118
330
1F
100
AcDbEntity
  8
0
  6
Continuous
 62
     7
370
    15
100
AcDbLine
 10
8252.7497255763
 20
8558.8650115328
 30
0.0
 11
8252.7497255763
 21
8559.1245002375
 31
0.0
  0
LINE
  5
119
330
1F
100
AcDbEntity
  8
0
  6
Continuous
 62
     7
370
    15
100
AcDbLine
 10
11252.7497255763
 20
8558.8650115328
 30
0.0
 11
11252.7497255763
 21
8559.1245002375
 31
0.0
  0
LINE
  5
11A
330
1F
100
AcDbEntity
  8
0
  6
Continuous
 62
     7
370
    15
100
AcDbLine
 10
11252.7497255763
 20
8559.6436917199
 30
0.0
 11
8252.7497255763
 21
8559.6436917199
 31
0.0
  0
LINE
  5
11B
330
1F
100
AcDbEntity
  8
0
  6
Continuous
 62
     7
370
    15
100
AcDbLine
 10
8252.7497255763
 20
8559.3851269873
 30
0.0
 11
8252.7497255763
 21
8559.6436917199
 31
0.0
  0
LINE
  5
11C
330
1F
100
AcDbEntity
  8
0
  6
Continuous
 62
     7
370
    15
100
AcDbLine
 10
11252.7497255763
 20
8559.3851269873
 30
0.0
 11
11252.7497255763
 21
8559.6436917199
 31
0.0
  0
LINE
  5
11D
330
1F
100
AcDbEntity
  8
0
  6
Continuous
 62
     7
370
    15
100
AcDbLine
 10
11252.7497255763
 20
8557.792080313
 30
0.0
 11
8252.7497255763
 21
8557.792080313
 31
0.0
  0
LINE
  5
11E
330
1F
100
AcDbEntity
  8
0
  6
Continuous
 62
     7
370
    15
100
AcDbLine
 10
8252.7497255763
 20
8558.8650115328
 30
0.0
 11
8252.7497255763
 21
8557.792080313
 31
0.0
  0
LINE
  5
11F
330
1F
100
AcDbEntity
  8
0
  6
Continuous
 62
     7
370
    15
100
AcDbLine
 10
11252.7497255763
 20
8558.8650115328
 30
0.0
 11
11252.7497255763
 21
8557.792080313
 31
0.0
  0
LINE
  5
120
330
1F
100
AcDbEntity
  8
0
  6
Continuous
 62
     7
370
    15
100
AcDbLine
 10
11252.7497255763
 20
8559.8970196238
 30
0.0
 11
8252.7497255763
 21
8559.8970196238
 31
0.0
  0
LINE
  5
121
330
1F
100
AcDbEntity
  8
0
  6
Continuous
 62
     7
370
    15
100
AcDbLine
 10
8252.7497255763
 20
8559.6436917199
 30
0.0
 11
8252.7497255763
 21
8559.8970196238
 31
0.0
  0
LINE
  5
122
330
1F
100
AcDbEntity
  8
0
  6
Continuous
 62
     7
370
    15
100
AcDbLine
 10
11252.7497255763
 20
8559.6436917199
 30
0.0
 11
11252.7497255763
 21
8559.8970196238
 31
0.0
  0
LINE
  5
123
330
1F
100
AcDbEntity
  8
0
  6
Continuous
 62
     7
370
    15
100
AcDbLine
 10
11252.7497255763
 20
8560.3845341625
 30
0.0
 11
8252.7497255763
 21
8560.3845341625
 31
0.0
  0
LINE
  5
124
330
1F
100
AcDbEntity
  8
0
  6
Continuous
 62
     7
370
    15
100
AcDbLine
 10
8252.7497255763
 20
8560.3845341625
 30
0.0
 11
8252.7497255763
 21
8559.8970196238
 31
0.0
  0
LINE
  5
125
330
1F
100
AcDbEntity
  8
0
  6
Continuous
 62
     7
370
    15
100
AcDbLine
 10
11252.7497255763
 20
8560.3845341625
 30
0.0
 11
11252.7497255763
 21
8559.8970196238
 31
0.0
  0
LINE
  5
126
330
1F
100
AcDbEntity
  8
0
  6
Continuous
 62
     7
370
    15
100
AcDbLine
 10
11252.7497255763
 20
8557.5610101019
 30
0.0
 11
8252.7497255763
 21
8557.5610101019
 31
0.0
  0
LINE
  5
127
330
1F
100
AcDbEntity
  8
0
  6
Continuous
 62
     7
370
    15
100
AcDbLine
 10
8252.7497255763
 20
8557.5610101019
 30
0.0
 11
8252.7497255763
 21
8557.792080313
 31
0.0
  0
LINE
  5
128
330
1F
100
AcDbEntity
  8
0
  6
Continuous
 62
     7
370
    15
100
AcDbLine
 10
11252.7497255763
 20
8557.5610101019
 30
0.0
 11
11252.7497255763
 21
8557.792080313
 31
0.0
  0
LINE
  5
129
330
1F
100
AcDbEntity
  8
0
  6
Continuous
 62
     7
370
    15
100
AcDbLine
 10
11252.7497255763
 20
8557.3357998888
 30
0.0
 11
8252.7497255763
 21
8557.3357998888
 31
0.0
  0
LINE
  5
12A
330
1F
100
AcDbEntity
  8
0
  6
Continuous
 62
     7
370
    15
100
AcDbLine
 10
8252.7497255763
 20
8557.3357998888
 30
0.0
 11
8252.7497255763
 21
8557.5610101019
 31
0.0
  0
LINE
  5
12B
330
1F
100
AcDbEntity
  8
0
  6
Continuous
 62
     7
370
    15
100
AcDbLine
 10
11252.7497255763
 20
8557.3357998888
 30
0.0
 11
11252.7497255763
 21
8557.5610101019
 31
0.0
  0
LINE
  5
12C
330
1F
100
AcDbEntity
  8
0
  6
Continuous
 62
     7
370
    15
100
AcDbLine
 10
11252.7497255763
 20
8560.8762444258
 30
0.0
 11
8252.7497255763
 21
8560.8762444258
 31
0.0
  0
LINE
  5
12D
330
1F
100
AcDbEntity
  8
0
  6
Continuous
 62
     7
370
    15
100
AcDbLine
 10
8252.7497255763
 20
8560.8762444258
 30
0.0
 11
8252.7497255763
 21
8560.3845341625
 31
0.0
  0
LINE
  5
12E
330
1F
100
AcDbEntity
  8
0
  6
Continuous
 62
     7
370
    15
100
AcDbLine
 10
11252.7497255763
 20
8560.8762444258
 30
0.0
 11
11252.7497255763
 21
8560.3845341625
 31
0.0
  0
LINE
  5
12F
330
1F
100
AcDbEntity
  8
0
  6
Continuous
 62
     7
370
    15
100
AcDbLine
 10
11252.7497255763
 20
8557.1187123219
 30
0.0
 11
8252.7497255763
 21
8557.1187123219
 31
0.0
  0
LINE
  5
130
330
1F
100
AcDbEntity
  8
0
  6
Continuous
 62
     7
370
    15
100
AcDbLine
 10
8252.7497255763
 20
8557.1187123219
 30
0.0
 11
8252.7497255763
 21
8557.3357998888
 31
0.0
  0
LINE
  5
131
330
1F
100
AcDbEntity
  8
0
  6
Continuous
 62
     7
370
    15
100
AcDbLine
 10
11252.7497255763
 20
8557.1187123219
 30
0.0
 11
11252.7497255763
 21
8557.3357998888
 31
0.0
  0
LINE
  5
132
330
1F
100
AcDbEntity
  8
0
  6
Continuous
 62
     7
370
    15
100
AcDbLine
 10
11252.7497255763
 20
8561.3716450548
 30
0.0
 11
8252.7497255763
 21
8561.3716450548
 31
0.0
  0
LINE
  5
133
330
1F
100
AcDbEntity
  8
0
  6
Continuous
 62
     7
370
    15
100
AcDbLine
 10
8252.7497255763
 20
8561.3716450548
 30
0.0
 11
8252.7497255763
 21
8560.8762444258
 31
0.0
  0
LINE
  5
134
330
1F
100
AcDbEntity
  8
0
  6
Continuous
 62
     7
370
    15
100
AcDbLine
 10
11252.7497255763
 20
8561.3716450548
 30
0.0
 11
11252.7497255763
 21
8560.8762444258
 31
0.0
  0
LINE
  5
135
330
1F
100
AcDbEntity
  8
0
  6
Continuous
 62
     7
370
    15
100
AcDbLine
 10
11252.7497255763
 20
8556.911928908
 30
0.0
 11
8252.7497255763
 21
8556.911928908
 31
0.0
  0
LINE
  5
136
330
1F
100
AcDbEntity
  8
0
  6
Continuous
 62
     7
370
    15
100
AcDbLine
 10
8252.7497255763
 20
8556.911928908
 30
0.0
 11
8252.7497255763
 21
8557.1187123219
 31
0.0
  0
LINE
  5
137
330
1F
100
AcDbEntity
  8
0
  6
Continuous
 62
     7
370
    15
100
AcDbLine
 10
11252.7497255763
 20
8556.911928908
 30
0.0
 11
11252.7497255763
 21
8557.1187123219
 31
0.0
  0
LINE
  5
138
330
1F
100
AcDbEntity
  8
0
  6
Continuous
 62
     7
370
    15
100
AcDbLine
 10
11252.7497255763
 20
8561.8702264997
 30
0.0
 11
8252.7497255763
 21
8561.8702264997
 31
0.0
  0
LINE
  5
139
330
1F
100
AcDbEntity
  8
0
  6
Continuous
 62
     7
370
    15
100
AcDbLine
 10
8252.7497255763
 20
8561.8702264997
 30
0.0
 11
8252.7497255763
 21
8561.3716450548
 31
0.0
  0
LINE
  5
13A
330
1F
100
AcDbEntity
  8
0
  6
Continuous
 62
     7
370
    15
100
AcDbLine
 10
11252.7497255763
 20
8561.8702264997
 30
0.0
 11
11252.7497255763
 21
8561.3716450548
 31
0.0
  0
LINE
  5
13B
330
1F
100
AcDbEntity
  8
0
  6
Continuous
 62
     7
370
    15
100
AcDbLine
 10
11252.7497255763
 20
8554.8337987653
 30
0.0
 11
8252.7497255763
 21
8554.8337987653
 31
0.0
  0
LINE
  5
13C
330
1F
100
AcDbEntity
  8
0
  6
Continuous
 62
     7
370
    15
100
AcDbLine
 10
8252.7497255763
 20
8556.911928908
 30
0.0
 11
8252.7497255763
 21
8554.8337987653
 31
0.0
  0
LINE
  5
13D
330
1F
100
AcDbEntity
  8
0
  6
Continuous
 62
     7
370
    15
100
AcDbLine
 10
11252.7497255763
 20
8556.911928908
 30
0.0
 11
11252.7497255763
 21
8554.8337987653
 31
0.0
  0
LINE
  5
13E
330
1F
100
AcDbEntity
  8
0
  6
Continuous
 62
     7
370
    15
100
AcDbLine
 10
11252.7497255763
 20
8562.0285080309
 30
0.0
 11
8252.7497255763
 21
8562.0285080309
 31
0.0
  0
LINE
  5
13F
330
1F
100
AcDbEntity
  8
0
  6
Continuous
 62
     7
370
    15
100
AcDbLine
 10
8252.7497255763
 20
8561.8702264997
 30
0.0
 11
8252.7497255763
 21
8562.0285080309
 31
0.0
  0
LINE
  5
140
330
1F
100
AcDbEntity
  8
0
  6
Continuous
 62
     7
370
    15
100
AcDbLine
 10
11252.7497255763
 20
8561.8702264997
 30
0.0
 11
11252.7497255763
 21
8562.0285080309
 31
0.0
  0
LINE
  5
141
330
1F
100
AcDbEntity
  8
0
  6
Continuous
 62
     7
370
    15
100
AcDbLine
 10
11252.7497255763
 20
8562.184224234
 30
0.0
 11
8252.7497255763
 21
8562.184224234
 31
0.0
  0
LINE
  5
142
330
1F
100
AcDbEntity
  8
0
  6
Continuous
 62
     7
370
    15
100
AcDbLine
 10
8252.7497255763
 20
8562.0285080309
 30
0.0
 11
8252.7497255763
 21
8562.184224234
 31
0.0
  0
LINE
  5
143
330
1F
100
AcDbEntity
  8
0
  6
Continuous
 62
     7
370
    15
100
AcDbLine
 10
11252.7497255763
 20
8562.0285080309
 30
0.0
 11
11252.7497255763
 21
8562.184224234
 31
0.0
  0
LINE
  5
144
330
1F
100
AcDbEntity
  8
0
  6
Continuous
 62
     7
370
    15
100
AcDbLine
 10
11252.7497255763
 20
8562.3366412269
 30
0.0
 11
8252.7497255763
 21
8562.3366412269
 31
0.0
  0
LINE
  5
145
330
1F
100
AcDbEntity
  8
0
  6
Continuous
 62
     7
370
    15
100
AcDbLine
 10
8252.7497255763
 20
8562.184224234
 30
0.0
 11
8252.7497255763
 21
8562.3366412269
 31
0.0
  0
LINE
  5
146
330
1F
100
AcDbEntity
  8
0
  6
Continuous
 62
     7
370
    15
100
AcDbLine
 10
11252.7497255763
 20
8562.184224234
 30
0.0
 11
11252.7497255763
 21
8562.3366412269
 31
0.0
  0
LINE
  5
147
330
1F
100
AcDbEntity
  8
0
  6
Continuous
 62
     7
370
    15
100
AcDbLine
 10
11252.7497255763
 20
8562.4850404943
 30
0.0
 11
8252.7497255763
 21
8562.4850404943
 31
0.0
  0
LINE
  5
148
330
1F
100
AcDbEntity
  8
0
  6
Continuous
 62
     7
370
    15
100
AcDbLine
 10
8252.7497255763
 20
8562.3366412269
 30
0.0
 11
8252.7497255763
 21
8562.4850404943
 31
0.0
  0
LINE
  5
149
330
1F
100
AcDbEntity
  8
0
  6
Continuous
 62
     7
370
    15
100
AcDbLine
 10
11252.7497255763
 20
8562.3366412269
 30
0.0
 11
11252.7497255763
 21
8562.4850404943
 31
0.0
  0
LINE
  5
14A
330
1F
100
AcDbEntity
  8
0
  6
Continuous
 62
     7
370
    15
100
AcDbLine
 10
11252.7497255763
 20
8562.6287233113
 30
0.0
 11
8252.7497255763
 21
8562.6287233113
 31
0.0
  0
LINE
  5
14B
330
1F
100
AcDbEntity
  8
0
  6
Continuous
 62
     7
370
    15
100
AcDbLine
 10
8252.7497255763
 20
8562.4850404943
 30
0.0
 11
8252.7497255763
 21
8562.6287233113
 31
0.0
  0
LINE
  5
14C
330
1F
100
AcDbEntity
  8
0
  6
Continuous
 62
     7
370
    15
100
AcDbLine
 10
11252.7497255763
 20
8562.4850404943
 30
0.0
 11
11252.7497255763
 21
8562.6287233113
 31
0.0
  0
LINE
  5
14D
330
1F
100
AcDbEntity
  8
0
  6
Continuous
 62
     7
370
    15
100
AcDbLine
 10
11252.7497255763
 20
8562.7670123736
 30
0.0
 11
8252.7497255763
 21
8562.7670123736
 31
0.0
  0
LINE
  5
14E
330
1F
100
AcDbEntity
  8
0
  6
Continuous
 62
     7
370
    15
100
AcDbLine
 10
8252.7497255763
 20
8562.6287233113
 30
0.0
 11
8252.7497255763
 21
8562.7670123736
 31
0.0
  0
LINE
  5
14F
330
1F
100
AcDbEntity
  8
0
  6
Continuous
 62
     7
370
    15
100
AcDbLine
 10
11252.7497255763
 20
8562.6287233113
 30
0.0
 11
11252.7497255763
 21
8562.7670123736
 31
0.0
  0
LINE
  5
150
330
1F
100
AcDbEntity
  8
0
  6
Continuous
 62
     7
370
    15
100
AcDbLine
 10
11252.7497255763
 20
8562.8992562211
 30
0.0
 11
8252.7497255763
 21
8562.8992562211
 31
0.0
  0
LINE
  5
151
330
1F
100
AcDbEntity
  8
0
  6
Continuous
 62
     7
370
    15
100
AcDbLine
 10
8252.7497255763
 20
8562.7670123736
 30
0.0
 11
8252.7497255763
 21
8562.8992562211
 31
0.0
  0
LINE
  5
152
330
1F
100
AcDbEntity
  8
0
  6
Continuous
 62
     7
370
    15
100
AcDbLine
 10
11252.7497255763
 20
8562.7670123736
 30
0.0
 11
11252.7497255763
 21
8562.8992562211
 31
0.0
  0
LINE
  5
153
330
1F
100
AcDbEntity
  8
0
  6
Continuous
 62
     7
370
    15
100
AcDbLine
 10
11252.7497255763
 20
8563.0248313332
 30
0.0
 11
8252.7497255763
 21
8563.0248313332
 31
0.0
  0
LINE
  5
154
330
1F
100
AcDbEntity
  8
0
  6
Continuous
 62
     7
370
    15
100
AcDbLine
 10
8252.7497255763
 20
8562.8992562211
 30
0.0
 11
8252.7497255763
 21
8563.0248313332
 31
0.0
  0
LINE
  5
155
330
1F
100
AcDbEntity
  8
0
  6
Continuous
 62
     7
370
    15
100
AcDbLine
 10
11252.7497255763
 20
8562.8992562211
 30
0.0
 11
11252.7497255763
 21
8563.0248313332
 31
0.0
  0
LINE
  5
156
330
1F
100
AcDbEntity
  8
0
  6
Continuous
 62
     7
370
    15
100
AcDbLine
 10
11252.7497255763
 20
8563.6377610295
 30
0.0
 11
8252.7497255763
 21
8563.6377610295
 31
0.0
  0
LINE
  5
157
330
1F
100
AcDbEntity
  8
0
  6
Continuous
 62
     7
370
    15
100
AcDbLine
 10
8252.7497255763
 20
8563.0248313332
 30
0.0
 11
8252.7497255763
 21
8563.6377610295
 31
0.0
  0
LINE
  5
158
330
1F
100
AcDbEntity
  8
0
  6
Continuous
 62
     7
370
    15
100
AcDbLine
 10
11252.7497255763
 20
8563.0248313332
 30
0.0
 11
11252.7497255763
 21
8563.6377610295
 31
0.0
  0
LINE
  5
159
330
1F
100
AcDbEntity
  8
0
  6
Continuous
 62
     7
370
    15
100
AcDbLine
 10
11252.7497255763
 20
8564.2307019821
 30
0.0
 11
8252.7497255763
 21
8564.2307019821
 31
0.0
  0
LINE
  5
15A
330
1F
100
AcDbEntity
  8
0
  6
Continuous
 62
     7
370
    15
100
AcDbLine
 10
8252.7497255763
 20
8563.6377610295
 30
0.0
 11
8252.7497255763
 21
8564.2307019821
 31
0.0
  0
LINE
  5
15B
330
1F
100
AcDbEntity
  8
0
  6
Continuous
 62
     7
370
    15
100
AcDbLine
 10
11252.7497255763
 20
8563.6377610295
 30
0.0
 11
11252.7497255763
 21
8564.2307019821
 31
0.0
  0
LINE
  5
15C
330
1F
100
AcDbEntity
  8
0
  6
Continuous
 62
     7
370
    15
100
AcDbLine
 10
11252.7497255763
 20
8554.7139906353
 30
0.0
 11
8252.7497255763
 21
8554.7139906353
 31
0.0
  0
LINE
  5
15D
330
1F
100
AcDbEntity
  8
0
  6
Continuous
 62
     7
370
    15
100
AcDbLine
 10
8252.7497255763
 20
8554.7139906353
 30
0.0
 11
8252.7497255763
 21
8554.8337987653
 31
0.0
  0
LINE
  5
15E
330
1F
100
AcDbEntity
  8
0
  6
Continuous
 62
     7
370
    15
100
AcDbLine
 10
11252.7497255763
 20
8554.7139906353
 30
0.0
 11
11252.7497255763
 21
8554.8337987653
 31
0.0
  0
LINE
  5
15F
330
1F
100
AcDbEntity
  8
0
  6
Continuous
 62
     7
370
    15
100
AcDbLine
 10
11252.7497255763
 20
8554.5992079219
 30
0.0
 11
8252.7497255763
 21
8554.5992079219
 31
0.0
  0
LINE
  5
160
330
1F
100
AcDbEntity
  8
0
  6
Continuous
 62
     7
370
    15
100
AcDbLine
 10
8252.7497255763
 20
8554.5992079219
 30
0.0
 11
8252.7497255763
 21
8554.7139906353
 31
0.0
  0
LINE
  5
161
330
1F
100
AcDbEntity
  8
0
  6
Continuous
 62
     7
370
    15
100
AcDbLine
 10
11252.7497255763
 20
8554.5992079219
 30
0.0
 11
11252.7497255763
 21
8554.7139906353
 31
0.0
  0
LINE
  5
162
330
1F
100
AcDbEntity
  8
0
  6
Continuous
 62
     7
370
    15
100
AcDbLine
 10
11252.7497255763
 20
8554.4898771709
 30
0.0
 11
8252.7497255763
 21
8554.4898771709
 31
0.0
  0
LINE
  5
163
330
1F
100
AcDbEntity
  8
0
  6
Continuous
 62
     7
370
    15
100
AcDbLine
 10
8252.7497255763
 20
8554.4898771709
 30
0.0
 11
8252.7497255763
 21
8554.5992079219
 31
0.0
  0
LINE
  5
164
330
1F
100
AcDbEntity
  8
0
  6
Continuous
 62
     7
370
    15
100
AcDbLine
 10
11252.7497255763
 20
8554.4898771709
 30
0.0
 11
11252.7497255763
 21
8554.5992079219
 31
0.0
  0
LINE
  5
165
330
1F
100
AcDbEntity
  8
0
  6
Continuous
 62
     7
370
    15
100
AcDbLine
 10
11252.7497255763
 20
8554.3864044389
 30
0.0
 11
8252.7497255763
 21
8554.3864044389
 31
0.0
  0
LINE
  5
166
330
1F
100
AcDbEntity
  8
0
  6
Continuous
 62
     7
370
    15
100
AcDbLine
 10
8252.7497255763
 20
8554.3864044389
 30
0.0
 11
8252.7497255763
 21
8554.4898771709
 31
0.0
  0
LINE
  5
167
330
1F
100
AcDbEntity
  8
0
  6
Continuous
 62
     7
370
    15
100
AcDbLine
 10
11252.7497255763
 20
8554.3864044389
 30
0.0
 11
11252.7497255763
 21
8554.4898771709
 31
0.0
  0
LINE
  5
168
330
1F
100
AcDbEntity
  8
0
  6
Continuous
 62
     7
370
    15
100
AcDbLine
 10
11252.7497255763
 20
8554.2891748278
 30
0.0
 11
8252.7497255763
 21
8554.2891748278
 31
0.0
  0
LINE
  5
169
330
1F
100
AcDbEntity
  8
0
  6
Continuous
 62
     7
370
    15
100
AcDbLine
 10
8252.7497255763
 20
8554.2891748278
 30
0.0
 11
8252.7497255763
 21
8554.3864044389
 31
0.0
  0
LINE
  5
16A
330
1F
100
AcDbEntity
  8
0
  6
Continuous
 62
     7
370
    15
100
AcDbLine
 10
11252.7497255763
 20
8554.2891748278
 30
0.0
 11
11252.7497255763
 21
8554.3864044389
 31
0.0
  0
LINE
  5
16B
330
1F
100
AcDbEntity
  8
0
  6
Continuous
 62
     7
370
    15
100
AcDbLine
 10
11252.7497255763
 20
8564.8023864283
 30
0.0
 11
8252.7497255763
 21
8564.8023864283
 31
0.0
  0
LINE
  5
16C
330
1F
100
AcDbEntity
  8
0
  6
Continuous
 62
     7
370
    15
100
AcDbLine
 10
8252.7497255763
 20
8564.2307019821
 30
0.0
 11
8252.7497255763
 21
8564.8023864283
 31
0.0
  0
LINE
  5
16D
330
1F
100
AcDbEntity
  8
0
  6
Continuous
 62
     7
370
    15
100
AcDbLine
 10
11252.7497255763
 20
8564.2307019821
 30
0.0
 11
11252.7497255763
 21
8564.8023864283
 31
0.0
  0
LINE
  5
16E
330
1F
100
AcDbEntity
  8
0
  6
Continuous
 62
     7
370
    15
100
AcDbLine
 10
11252.7497255763
 20
8554.198549225
 30
0.0
 11
8252.7497255763
 21
8554.198549225
 31
0.0
  0
LINE
  5
16F
330
1F
100
AcDbEntity
  8
0
  6
Continuous
 62
     7
370
    15
100
AcDbLine
 10
8252.7497255763
 20
8554.198549225
 30
0.0
 11
8252.7497255763
 21
8554.2891748278
 31
0.0
  0
LINE
  5
170
330
1F
100
AcDbEntity
  8
0
  6
Continuous
 62
     7
370
    15
100
AcDbLine
 10
11252.7497255763
 20
8554.198549225
 30
0.0
 11
11252.7497255763
 21
8554.2891748278
 31
0.0
  0
LINE
  5
171
330
1F
100
AcDbEntity
  8
0
  6
Continuous
 62
     7
370
    15
100
AcDbLine
 10
11252.7497255763
 20
8554.1148647694
 30
0.0
 11
8252.7497255763
 21
8554.1148647694
 31
0.0
  0
LINE
  5
172
330
1F
100
AcDbEntity
  8
0
  6
Continuous
 62
     7
370
    15
100
AcDbLine
 10
8252.7497255763
 20
8554.1148647694
 30
0.0
 11
8252.7497255763
 21
8554.198549225
 31
0.0
  0
LINE
  5
173
330
1F
100
AcDbEntity
  8
0
  6
Continuous
 62
     7
370
    15
100
AcDbLine
 10
11252.7497255763
 20
8554.1148647694
 30
0.0
 11
11252.7497255763
 21
8554.198549225
 31
0.0
  0
LINE
  5
174
330
1F
100
AcDbEntity
  8
0
  6
Continuous
 62
     7
370
    15
100
AcDbLine
 10
11252.7497255763
 20
8554.0384325227
 30
0.0
 11
8252.7497255763
 21
8554.0384325227
 31
0.0
  0
LINE
  5
175
330
1F
100
AcDbEntity
  8
0
  6
Continuous
 62
     7
370
    15
100
AcDbLine
 10
8252.7497255763
 20
8554.0384325227
 30
0.0
 11
8252.7497255763
 21
8554.1148647694
 31
0.0
  0
LINE
  5
176
330
1F
100
AcDbEntity
  8
0
  6
Continuous
 62
     7
370
    15
100
AcDbLine
 10
11252.7497255763
 20
8554.0384325227
 30
0.0
 11
11252.7497255763
 21
8554.1148647694
 31
0.0
  0
LINE
  5
177
330
1F
100
AcDbEntity
  8
0
  6
Continuous
 62
     7
370
    15
100
AcDbLine
 10
11252.7497255763
 20
8553.1320135138
 30
0.0
 11
8252.7497255763
 21
8553.1320135138
 31
0.0
  0
LINE
  5
178
330
1F
100
AcDbEntity
  8
0
  6
Continuous
 62
     7
370
    15
100
AcDbLine
 10
8252.7497255763
 20
8554.0384325227
 30
0.0
 11
8252.7497255763
 21
8553.1320135138
 31
0.0
  0
LINE
  5
179
330
1F
100
AcDbEntity
  8
0
  6
Continuous
 62
     7
370
    15
100
AcDbLine
 10
11252.7497255763
 20
8554.0384325227
 30
0.0
 11
11252.7497255763
 21
8553.1320135138
 31
0.0
  0
LINE
  5
17A
330
1F
100
AcDbEntity
  8
0
  6
Continuous
 62
     7
370
    15
100
AcDbLine
 10
11252.7497255763
 20
8565.3520572028
 30
0.0
 11
8252.7497255763
 21
8565.3520572028
 31
0.0
  0
LINE
  5
17B
330
1F
100
AcDbEntity
  8
0
  6
Continuous
 62
     7
370
    15
100
AcDbLine
 10
8252.7497255763
 20
8564.8023864283
 30
0.0
 11
8252.7497255763
 21
8565.3520572028
 31
0.0
  0
LINE
  5
17C
330
1F
100
AcDbEntity
  8
0
  6
Continuous
 62
     7
370
    15
100
AcDbLine
 10
11252.7497255763
 20
8564.8023864283
 30
0.0
 11
11252.7497255763
 21
8565.3520572028
 31
0.0
  0
LINE
  5
17D
330
1F
100
AcDbEntity
  8
0
  6
Continuous
 62
     7
370
    15
100
AcDbLine
 10
11252.7497255763
 20
8565.4470176464
 30
0.0
 11
8252.7497255763
 21
8565.4470176464
 31
0.0
  0
LINE
  5
17E
330
1F
100
AcDbEntity
  8
0
  6
Continuous
 62
     7
370
    15
100
AcDbLine
 10
8252.7497255763
 20
8565.3520572028
 30
0.0
 11
8252.7497255763
 21
8565.4470176464
 31
0.0
  0
LINE
  5
17F
330
1F
100
AcDbEntity
  8
0
  6
Continuous
 62
     7
370
    15
100
AcDbLine
 10
11252.7497255763
 20
8565.3520572028
 30
0.0
 11
11252.7497255763
 21
8565.4470176464
 31
0.0
  0
LINE
  5
180
330
1F
100
AcDbEntity
  8
0
  6
Continuous
 62
     7
370
    15
100
AcDbLine
 10
11252.7497255763
 20
8565.5342211044
 30
0.0
 11
8252.7497255763
 21
8565.5342211044
 31
0.0
  0
LINE
  5
181
330
1F
100
AcDbEntity
  8
0
  6
Continuous
 62
     7
370
    15
100
AcDbLine
 10
8252.7497255763
 20
8565.4470176464
 30
0.0
 11
8252.7497255763
 21
8565.5342211044
 31
0.0
  0
LINE
  5
182
330
1F
100
AcDbEntity
  8
0
  6
Continuous
 62
     7
370
    15
100
AcDbLine
 10
11252.7497255763
 20
8565.4470176464
 30
0.0
 11
11252.7497255763
 21
8565.5342211044
 31
0.0
  0
LINE
  5
183
330
1F
100
AcDbEntity
  8
0
  6
Continuous
 62
     7
370
    15
100
AcDbLine
 10
11252.7497255763
 20
8565.6133071548
 30
0.0
 11
8252.7497255763
 21
8565.6133071548
 31
0.0
  0
LINE
  5
184
330
1F
100
AcDbEntity
  8
0
  6
Continuous
 62
     7
370
    15
100
AcDbLine
 10
8252.7497255763
 20
8565.5342211044
 30
0.0
 11
8252.7497255763
 21
8565.6133071548
 31
0.0
  0
LINE
  5
185
330
1F
100
AcDbEntity
  8
0
  6
Continuous
 62
     7
370
    15
100
AcDbLine
 10
11252.7497255763
 20
8565.5342211044
 30
0.0
 11
11252.7497255763
 21
8565.6133071548
 31
0.0
  0
LINE
  5
186
330
1F
100
AcDbEntity
  8
0
  6
Continuous
 62
     7
370
    15
100
AcDbLine
 10
11252.7497255763
 20
8565.6839484377
 30
0.0
 11
8252.7497255763
 21
8565.6839484377
 31
0.0
  0
LINE
  5
187
330
1F
100
AcDbEntity
  8
0
  6
Continuous
 62
     7
370
    15
100
AcDbLine
 10
8252.7497255763
 20
8565.6133071548
 30
0.0
 11
8252.7497255763
 21
8565.6839484377
 31
0.0
  0
LINE
  5
188
330
1F
100
AcDbEntity
  8
0
  6
Continuous
 62
     7
370
    15
100
AcDbLine
 10
11252.7497255763
 20
8565.6133071548
 30
0.0
 11
11252.7497255763
 21
8565.6839484377
 31
0.0
  0
LINE
  5
189
330
1F
100
AcDbEntity
  8
0
  6
Continuous
 62
     7
370
    15
100
AcDbLine
 10
11252.7497255763
 20
8565.7458529836
 30
0.0
 11
8252.7497255763
 21
8565.7458529836
 31
0.0
  0
LINE
  5
18A
330
1F
100
AcDbEntity
  8
0
  6
Continuous
 62
     7
370
    15
100
AcDbLine
 10
8252.7497255763
 20
8565.6839484377
 30
0.0
 11
8252.7497255763
 21
8565.7458529836
 31
0.0
  0
LINE
  5
18B
330
1F
100
AcDbEntity
  8
0
  6
Continuous
 62
     7
370
    15
100
AcDbLine
 10
11252.7497255763
 20
8565.6839484377
 30
0.0
 11
11252.7497255763
 21
8565.7458529836
 31
0.0
  0
LINE
  5
18C
330
1F
100
AcDbEntity
  8
0
  6
Continuous
 62
     7
370
    15
100
AcDbLine
 10
11252.7497255763
 20
8565.79876561
 30
0.0
 11
8252.7497255763
 21
8565.79876561
 31
0.0
  0
LINE
  5
18D
330
1F
100
AcDbEntity
  8
0
  6
Continuous
 62
     7
370
    15
100
AcDbLine
 10
8252.7497255763
 20
8565.7458529836
 30
0.0
 11
8252.7497255763
 21
8565.79876561
 31
0.0
  0
LINE
  5
18E
330
1F
100
AcDbEntity
  8
0
  6
Continuous
 62
     7
370
    15
100
AcDbLine
 10
11252.7497255763
 20
8565.7458529836
 30
0.0
 11
11252.7497255763
 21
8565.79876561
 31
0.0
  0
LINE
  5
18F
330
1F
100
AcDbEntity
  8
0
  6
Continuous
 62
     7
370
    15
100
AcDbLine
 10
11252.7497255763
 20
8553.0481572291
 30
0.0
 11
8252.7497255763
 21
8553.0481572291
 31
0.0
  0
LINE
  5
190
330
1F
100
AcDbEntity
  8
0
  6
Continuous
 62
     7
370
    15
100
AcDbLine
 10
8252.7497255763
 20
8553.0481572291
 30
0.0
 11
8252.7497255763
 21
8553.1320135138
 31
0.0
  0
LINE
  5
191
330
1F
100
AcDbEntity
  8
0
  6
Continuous
 62
     7
370
    15
100
AcDbLine
 10
11252.7497255763
 20
8553.0481572291
 30
0.0
 11
11252.7497255763
 21
8553.1320135138
 31
0.0
  0
LINE
  5
192
330
1F
100
AcDbEntity
  8
0
  6
Continuous
 62
     7
370
    15
100
AcDbLine
 10
11252.7497255763
 20
8565.8424674562
 30
0.0
 11
8252.7497255763
 21
8565.8424674562
 31
0.0
  0
LINE
  5
193
330
1F
100
AcDbEntity
  8
0
  6
Continuous
 62
     7
370
    15
100
AcDbLine
 10
8252.7497255763
 20
8565.79876561
 30
0.0
 11
8252.7497255763
 21
8565.8424674562
 31
0.0
  0
LINE
  5
194
330
1F
100
AcDbEntity
  8
0
  6
Continuous
 62
     7
370
    15
100
AcDbLine
 10
11252.7497255763
 20
8565.79876561
 30
0.0
 11
11252.7497255763
 21
8565.8424674562
 31
0.0
  0
LINE
  5
195
330
1F
100
AcDbEntity
  8
0
  6
Continuous
 62
     7
370
    15
100
AcDbLine
 10
11252.7497255763
 20
8552.9762353777
 30
0.0
 11
8252.7497255763
 21
8552.9762353777
 31
0.0
  0
LINE
  5
196
330
1F
100
AcDbEntity
  8
0
  6
Continuous
 62
     7
370
    15
100
AcDbLine
 10
8252.7497255763
 20
8552.9762353777
 30
0.0
 11
8252.7497255763
 21
8553.0481572291
 31
0.0
  0
LINE
  5
197
330
1F
100
AcDbEntity
  8
0
  6
Continuous
 62
     7
370
    15
100
AcDbLine
 10
11252.7497255763
 20
8552.9762353777
 30
0.0
 11
11252.7497255763
 21
8553.0481572291
 31
0.0
  0
LINE
  5
198
330
1F
100
AcDbEntity
  8
0
  6
Continuous
 62
     7
370
    15
100
AcDbLine
 10
11252.7497255763
 20
8565.8767783111
 30
0.0
 11
8252.7497255763
 21
8565.8767783111
 31
0.0
  0
LINE
  5
199
330
1F
100
AcDbEntity
  8
0
  6
Continuous
 62
     7
370
    15
100
AcDbLine
 10
8252.7497255763
 20
8565.8424674562
 30
0.0
 11
8252.7497255763
 21
8565.8767783111
 31
0.0
  0
LINE
  5
19A
330
1F
100
AcDbEntity
  8
0
  6
Continuous
 62
     7
370
    15
100
AcDbLine
 10
11252.7497255763
 20
8565.8424674562
 30
0.0
 11
11252.7497255763
 21
8565.8767783111
 31
0.0
  0
LINE
  5
19B
330
1F
100
AcDbEntity
  8
0
  6
Continuous
 62
     7
370
    15
100
AcDbLine
 10
11252.7497255763
 20
8552.9166544816
 30
0.0
 11
8252.7497255763
 21
8552.9166544816
 31
0.0
  0
LINE
  5
19C
330
1F
100
AcDbEntity
  8
0
  6
Continuous
 62
     7
370
    15
100
AcDbLine
 10
8252.7497255763
 20
8552.9166544816
 30
0.0
 11
8252.7497255763
 21
8552.9762353777
 31
0.0
  0
LINE
  5
19D
330
1F
100
AcDbEntity
  8
0
  6
Continuous
 62
     7
370
    15
100
AcDbLine
 10
11252.7497255763
 20
8552.9166544816
 30
0.0
 11
11252.7497255763
 21
8552.9762353777
 31
0.0
  0
LINE
  5
19E
330
1F
100
AcDbEntity
  8
0
  6
Continuous
 62
     7
370
    15
100
AcDbLine
 10
11252.7497255763
 20
8566.0299054375
 30
0.0
 11
8252.7497255763
 21
8566.0299054375
 31
0.0
  0
LINE
  5
19F
330
1F
100
AcDbEntity
  8
0
  6
Continuous
 62
     7
370
    15
100
AcDbLine
 10
8252.7497255763
 20
8566.0299054375
 30
0.0
 11
8252.7497255763
 21
8565.8767783111
 31
0.0
  0
LINE
  5
1A0
330
1F
100
AcDbEntity
  8
0
  6
Continuous
 62
     7
370
    15
100
AcDbLine
 10
11252.7497255763
 20
8566.0299054375
 30
0.0
 11
11252.7497255763
 21
8565.8767783111
 31
0.0
  0
LINE
  5
1A1
330
1F
100
AcDbEntity
  8
0
  6
Continuous
 62
     7
370
    15
100
AcDbLine
 10
11252.7497255763
 20
8552.8697507484
 30
0.0
 11
8252.7497255763
 21
8552.8697507484
 31
0.0
  0
LINE
  5
1A2
330
1F
100
AcDbEntity
  8
0
  6
Continuous
 62
     7
370
    15
100
AcDbLine
 10
8252.7497255763
 20
8552.8697507484
 30
0.0
 11
8252.7497255763
 21
8552.9166544816
 31
0.0
  0
LINE
  5
1A3
330
1F
100
AcDbEntity
  8
0
  6
Continuous
 62
     7
370
    15
100
AcDbLine
 10
11252.7497255763
 20
8552.8697507484
 30
0.0
 11
11252.7497255763
 21
8552.9166544816
 31
0.0
  0
LINE
  5
1A4
330
1F
100
AcDbEntity
  8
0
  6
Continuous
 62
     7
370
    15
100
AcDbLine
 10
11252.7497255763
 20
8552.5028236239
 30
0.0
 11
8252.7497255763
 21
8552.5028236239
 31
0.0
  0
LINE
  5
1A5
330
1F
100
AcDbEntity
  8
0
  6
Continuous
 62
     7
370
    15
100
AcDbLine
 10
8252.7497255763
 20
8552.5028236239
 30
0.0
 11
8252.7497255763
 21
8552.8697507484
 31
0.0
  0
LINE
  5
1A6
330
1F
100
AcDbEntity
  8
0
  6
Continuous
 62
     7
370
    15
100
AcDbLine
 10
11252.7497255763
 20
8552.5028236239
 30
0.0
 11
11252.7497255763
 21
8552.8697507484
 31
0.0
  0
LINE
  5
1A7
330
1F
100
AcDbEntity
  8
0
  6
Continuous
 62
     7
370
    15
100
AcDbLine
 10
11252.7497255763
 20
8566.0429611831
 30
0.0
 11
8252.7497255763
 21
8566.0429611831
 31
0.0
  0
LINE
  5
1A8
330
1F
100
AcDbEntity
  8
0
  6
Continuous
 62
     7
370
    15
100
AcDbLine
 10
8252.7497255763
 20
8566.0429611831
 30
0.0
 11
8252.7497255763
 21
8566.0299054375
 31
0.0
  0
LINE
  5
1A9
330
1F
100
AcDbEntity
  8
0
  6
Continuous
 62
     7
370
    15
100
AcDbLine
 10
11252.7497255763
 20
8566.0429611831
 30
0.0
 11
11252.7497255763
 21
8566.0299054375
 31
0.0
  0
LINE
  5
1AA
330
1F
100
AcDbEntity
  8
0
  6
Continuous
 62
     7
370
    15
100
AcDbLine
 10
11252.7497255763
 20
8566.0576420865
 30
0.0
 11
8252.7497255763
 21
8566.0576420865
 31
0.0
  0
LINE
  5
1AB
330
1F
100
AcDbEntity
  8
0
  6
Continuous
 62
     7
370
    15
100
AcDbLine
 10
8252.7497255763
 20
8566.0576420865
 30
0.0
 11
8252.7497255763
 21
8566.0429611831
 31
0.0
  0
LINE
  5
1AC
330
1F
100
AcDbEntity
  8
0
  6
Continuous
 62
     7
370
    15
100
AcDbLine
 10
11252.7497255763
 20
8566.0576420865
 30
0.0
 11
11252.7497255763
 21
8566.0429611831
 31
0.0
  0
LINE
  5
1AD
330
1F
100
AcDbEntity
  8
0
  6
Continuous
 62
     7
370
    15
100
AcDbLine
 10
11252.7497255763
 20
8566.2899660906
 30
0.0
 11
8252.7497255763
 21
8566.2899660906
 31
0.0
  0
LINE
  5
1AE
330
1F
100
AcDbEntity
  8
0
  6
Continuous
 62
     7
370
    15
100
AcDbLine
 10
8252.7497255763
 20
8566.2899660906
 30
0.0
 11
8252.7497255763
 21
8566.0576420865
 31
0.0
  0
LINE
  5
1AF
330
1F
100
AcDbEntity
  8
0
  6
Continuous
 62
     7
370
    15
100
AcDbLine
 10
11252.7497255763
 20
8566.2899660906
 30
0.0
 11
11252.7497255763
 21
8566.0576420865
 31
0.0
  0
LINE
  5
1B0
330
1F
100
AcDbEntity
  8
0
  6
Continuous
 62
     7
370
    15
100
AcDbLine
 10
11252.7497255763
 20
8566.3218606292
 30
0.0
 11
8252.7497255763
 21
8566.3218606292
 31
0.0
  0
LINE
  5
1B1
330
1F
100
AcDbEntity
  8
0
  6
Continuous
 62
     7
370
    15
100
AcDbLine
 10
8252.7497255763
 20
8566.2899660906
 30
0.0
 11
8252.7497255763
 21
8566.3218606292
 31
0.0
  0
LINE
  5
1B2
330
1F
100
AcDbEntity
  8
0
  6
Continuous
 62
     7
370
    15
100
AcDbLine
 10
11252.7497255763
 20
8566.2899660906
 30
0.0
 11
11252.7497255763
 21
8566.3218606292
 31
0.0
  0
LINE
  5
1B3
330
1F
100
AcDbEntity
  8
0
  6
Continuous
 62
     7
370
    15
100
AcDbLine
 10
11252.7497255763
 20
8552.4560805439
 30
0.0
 11
8252.7497255763
 21
8552.4560805439
 31
0.0
  0
LINE
  5
1B4
330
1F
100
AcDbEntity
  8
0
  6
Continuous
 62
     7
370
    15
100
AcDbLine
 10
8252.7497255763
 20
8552.4560805439
 30
0.0
 11
8252.7497255763
 21
8552.5028236239
 31
0.0
  0
LINE
  5
1B5
330
1F
100
AcDbEntity
  8
0
  6
Continuous
 62
     7
370
    15
100
AcDbLine
 10
11252.7497255763
 20
8552.4560805439
 30
0.0
 11
11252.7497255763
 21
8552.5028236239
 31
0.0
  0
LINE
  5
1B6
330
1F
100
AcDbEntity
  8
0
  6
Continuous
 62
     7
370
    15
100
AcDbLine
 10
11252.7497255763
 20
8566.344732049
 30
0.0
 11
8252.7497255763
 21
8566.344732049
 31
0.0
  0
LINE
  5
1B7
330
1F
100
AcDbEntity
  8
0
  6
Continuous
 62
     7
370
    15
100
AcDbLine
 10
8252.7497255763
 20
8566.3218606292
 30
0.0
 11
8252.7497255763
 21
8566.344732049
 31
0.0
  0
LINE
  5
1B8
330
1F
100
AcDbEntity
  8
0
  6
Continuous
 62
     7
370
    15
100
AcDbLine
 10
11252.7497255763
 20
8566.3218606292
 30
0.0
 11
11252.7497255763
 21
8566.344732049
 31
0.0
  0
LINE
  5
1B9
330
1F
100
AcDbEntity
  8
0
  6
Continuous
 62
     7
370
    15
100
AcDbLine
 10
11252.7497255763
 20
8566.3584904774
 30
0.0
 11
8252.7497255763
 21
8566.3584904774
 31
0.0
  0
LINE
  5
1BA
330
1F
100
AcDbEntity
  8
0
  6
Continuous
 62
     7
370
    15
100
AcDbLine
 10
8252.7497255763
 20
8566.344732049
 30
0.0
 11
8252.7497255763
 21
8566.3584904774
 31
0.0
  0
LINE
  5
1BB
330
1F
100
AcDbEntity
  8
0
  6
Continuous
 62
     7
370
    15
100
AcDbLine
 10
11252.7497255763
 20
8566.344732049
 30
0.0
 11
11252.7497255763
 21
8566.3584904774
 31
0.0
  0
LINE
  5
1BC
330
1F
100
AcDbEntity
  8
0
  6
Continuous
 62
     7
370
    15
100
AcDbLine
 10
11252.7497255763
 20
8552.4404301337
 30
0.0
 11
8252.7497255763
 21
8552.4404301337
 31
0.0
  0
LINE
  5
1BD
330
1F
100
AcDbEntity
  8
0
  6
Continuous
 62
     7
370
    15
100
AcDbLine
 10
8252.7497255763
 20
8552.4404301337
 30
0.0
 11
8252.7497255763
 21
8552.4560805439
 31
0.0
  0
LINE
  5
1BE
330
1F
100
AcDbEntity
  8
0
  6
Continuous
 62
     7
370
    15
100
AcDbLine
 10
11252.7497255763
 20
8552.4404301337
 30
0.0
 11
11252.7497255763
 21
8552.4560805439
 31
0.0
  0
LINE
  5
1BF
330
1F
100
AcDbEntity
  8
0
  6
Continuous
 62
     7
370
    15
100
AcDbLine
 10
8252.7497255763
 20
8566.3584904774
 30
0.0
 11
8252.7497255763
 21
8566.363082829
 31
0.0
  0
LINE
  5
1C0
330
1F
100
AcDbEntity
  8
0
  6
Continuous
 62
     7
370
    15
100
AcDbLine
 10
11252.7497255763
 20
8566.3584904774
 30
0.0
 11
11252.7497255763
 21
8566.363082829
 31
0.0
  0
LINE
  5
1C1
330
1F
100
AcDbEntity
  8
0
  6
Continuous
 62
     7
370
    15
100
AcDbLine
 10
3869.7988672784
 20
2509.7091108672
 30
0.0
 11
3869.7988672784
 21
5509.7091108672
 31
0.0
  0
LINE
  5
1C2
330
1F
100
AcDbEntity
  8
0
  6
Continuous
 62
     7
370
    15
100
AcDbLine
 10
3855.8762150487
 20
5509.7091108672
 30
0.0
 11
3855.8762150487
 21
2509.7091108672
 31
0.0
  0
LINE
  5
1C3
330
1F
100
AcDbEntity
  8
0
  6
Continuous
 62
     7
370
    15
100
AcDbLine
 10
3863.1110293927
 20
2509.7091108672
 30
0.0
 11
3863.1110293927
 21
5509.7091108672
 31
0.0
  0
LINE
  5
1C4
330
1F
100
AcDbEntity
  8
0
  6
Continuous
 62
     7
370
    15
100
AcDbLine
 10
3862.8375411636
 20
2509.7091108672
 30
0.0
 11
3862.8375411636
 21
5509.7091108672
 31
0.0
  0
LINE
  5
1C5
330
1F
100
AcDbEntity
  8
0
  6
Continuous
 62
     7
370
    15
100
AcDbLine
 10
3862.8375411636
 20
5509.7091108672
 30
0.0
 11
3863.1110293927
 21
5509.7091108672
 31
0.0
  0
LINE
  5
1C6
330
1F
100
AcDbEntity
  8
0
  6
Continuous
 62
     7
370
    15
100
AcDbLine
 10
3862.8375411636
 20
2509.7091108672
 30
0.0
 11
3863.1110293927
 21
2509.7091108672
 31
0.0
  0
LINE
  5
1C7
330
1F
100
AcDbEntity
  8
0
  6
Continuous
 62
     7
370
    15
100
AcDbLine
 10
3862.5640529344
 20
2509.7091108672
 30
0.0
 11
3862.5640529344
 21
5509.7091108672
 31
0.0
  0
LINE
  5
1C8
330
1F
100
AcDbEntity
  8
0
  6
Continuous
 62
     7
370
    15
100
AcDbLine
 10
3862.5640529344
 20
5509.7091108672
 30
0.0
 11
3862.8375411636
 21
5509.7091108672
 31
0.0
  0
LINE
  5
1C9
330
1F
100
AcDbEntity
  8
0
  6
Continuous
 62
     7
370
    15
100
AcDbLine
 10
3862.5640529344
 20
2509.7091108672
 30
0.0
 11
3862.8375411636
 21
2509.7091108672
 31
0.0
  0
LINE
  5
1CA
330
1F
100
AcDbEntity
  8
0
  6
Continuous
 62
     7
370
    15
100
AcDbLine
 10
3862.2942038482
 20
2509.7091108672
 30
0.0
 11
3862.2942038482
 21
5509.7091108672
 31
0.0
  0
LINE
  5
1CB
330
1F
100
AcDbEntity
  8
0
  6
Continuous
 62
     7
370
    15
100
AcDbLine
 10
3862.2942038482
 20
5509.7091108672
 30
0.0
 11
3862.5640529344
 21
5509.7091108672
 31
0.0
  0
LINE
  5
1CC
330
1F
100
AcDbEntity
  8
0
  6
Continuous
 62
     7
370
    15
100
AcDbLine
 10
3862.2942038482
 20
2509.7091108672
 30
0.0
 11
3862.5640529344
 21
2509.7091108672
 31
0.0
  0
LINE
  5
1CD
330
1F
100
AcDbEntity
  8
0
  6
Continuous
 62
     7
370
    15
100
AcDbLine
 10
3863.3808784789
 20
2509.7091108672
 30
0.0
 11
3863.3808784789
 21
5509.7091108672
 31
0.0
  0
LINE
  5
1CE
330
1F
100
AcDbEntity
  8
0
  6
Continuous
 62
     7
370
    15
100
AcDbLine
 10
3863.1110293927
 20
5509.7091108672
 30
0.0
 11
3863.3808784789
 21
5509.7091108672
 31
0.0
  0
LINE
  5
1CF
330
1F
100
AcDbEntity
  8
0
  6
Continuous
 62
     7
370
    15
100
AcDbLine
 10
3863.1110293927
 20
2509.7091108672
 30
0.0
 11
3863.3808784789
 21
2509.7091108672
 31
0.0
  0
LINE
  5
1D0
330
1F
100
AcDbEntity
  8
0
  6
Continuous
 62
     7
370
    15
100
AcDbLine
 10
3864.9570397238
 20
2509.7091108672
 30
0.0
 11
3864.9570397238
 21
5509.7091108672
 31
0.0
  0
LINE
  5
1D1
330
1F
100
AcDbEntity
  8
0
  6
Continuous
 62
     7
370
    15
100
AcDbLine
 10
3863.3808784789
 20
5509.7091108672
 30
0.0
 11
3864.9570397238
 21
5509.7091108672
 31
0.0
  0
LINE
  5
1D2
330
1F
100
AcDbEntity
  8
0
  6
Continuous
 62
     7
370
    15
100
AcDbLine
 10
3863.3808784789
 20
2509.7091108672
 30
0.0
 11
3864.9570397238
 21
2509.7091108672
 31
0.0
  0
LINE
  5
1D3
330
1F
100
AcDbEntity
  8
0
  6
Continuous
 62
     7
370
    15
100
AcDbLine
 10
3860.7180426033
 20
2509.7091108672
 30
0.0
 11
3860.7180426033
 21
5509.7091108672
 31
0.0
  0
LINE
  5
1D4
330
1F
100
AcDbEntity
  8
0
  6
Continuous
 62
     7
370
    15
100
AcDbLine
 10
3862.2942038482
 20
5509.7091108672
 30
0.0
 11
3860.7180426033
 21
5509.7091108672
 31
0.0
  0
LINE
  5
1D5
330
1F
100
AcDbEntity
  8
0
  6
Continuous
 62
     7
370
    15
100
AcDbLine
 10
3862.2942038482
 20
2509.7091108672
 30
0.0
 11
3860.7180426033
 21
2509.7091108672
 31
0.0
  0
LINE
  5
1D6
330
1F
100
AcDbEntity
  8
0
  6
Continuous
 62
     7
370
    15
100
AcDbLine
 10
3860.5458983356
 20
2509.7091108672
 30
0.0
 11
3860.5458983356
 21
5509.7091108672
 31
0.0
  0
LINE
  5
1D7
330
1F
100
AcDbEntity
  8
0
  6
Continuous
 62
     7
370
    15
100
AcDbLine
 10
3860.5458983356
 20
5509.7091108672
 30
0.0
 11
3860.7180426033
 21
5509.7091108672
 31
0.0
  0
LINE
  5
1D8
330
1F
100
AcDbEntity
  8
0
  6
Continuous
 62
     7
370
    15
100
AcDbLine
 10
3860.5458983356
 20
2509.7091108672
 30
0.0
 11
3860.7180426033
 21
2509.7091108672
 31
0.0
  0
LINE
  5
1D9
330
1F
100
AcDbEntity
  8
0
  6
Continuous
 62
     7
370
    15
100
AcDbLine
 10
3865.1291839915
 20
2509.7091108672
 30
0.0
 11
3865.1291839915
 21
5509.7091108672
 31
0.0
  0
LINE
  5
1DA
330
1F
100
AcDbEntity
  8
0
  6
Continuous
 62
     7
370
    15
100
AcDbLine
 10
3864.9570397238
 20
5509.7091108672
 30
0.0
 11
3865.1291839915
 21
5509.7091108672
 31
0.0
  0
LINE
  5
1DB
330
1F
100
AcDbEntity
  8
0
  6
Continuous
 62
     7
370
    15
100
AcDbLine
 10
3864.9570397238
 20
2509.7091108672
 30
0.0
 11
3865.1291839915
 21
2509.7091108672
 31
0.0
  0
LINE
  5
1DC
330
1F
100
AcDbEntity
  8
0
  6
Continuous
 62
     7
370
    15
100
AcDbLine
 10
3865.2972844566
 20
2509.7091108672
 30
0.0
 11
3865.2972844566
 21
5509.7091108672
 31
0.0
  0
LINE
  5
1DD
330
1F
100
AcDbEntity
  8
0
  6
Continuous
 62
     7
370
    15
100
AcDbLine
 10
3865.1291839915
 20
5509.7091108672
 30
0.0
 11
3865.2972844566
 21
5509.7091108672
 31
0.0
  0
LINE
  5
1DE
330
1F
100
AcDbEntity
  8
0
  6
Continuous
 62
     7
370
    15
100
AcDbLine
 10
3865.1291839915
 20
2509.7091108672
 30
0.0
 11
3865.2972844566
 21
2509.7091108672
 31
0.0
  0
LINE
  5
1DF
330
1F
100
AcDbEntity
  8
0
  6
Continuous
 62
     7
370
    15
100
AcDbLine
 10
3860.3777978706
 20
2509.7091108672
 30
0.0
 11
3860.3777978706
 21
5509.7091108672
 31
0.0
  0
LINE
  5
1E0
330
1F
100
AcDbEntity
  8
0
  6
Continuous
 62
     7
370
    15
100
AcDbLine
 10
3860.3777978706
 20
5509.7091108672
 30
0.0
 11
3860.5458983356
 21
5509.7091108672
 31
0.0
  0
LINE
  5
1E1
330
1F
100
AcDbEntity
  8
0
  6
Continuous
 62
     7
370
    15
100
AcDbLine
 10
3860.3777978706
 20
2509.7091108672
 30
0.0
 11
3860.5458983356
 21
2509.7091108672
 31
0.0
  0
LINE
  5
1E2
330
1F
100
AcDbEntity
  8
0
  6
Continuous
 62
     7
370
    15
100
AcDbLine
 10
3865.4603909372
 20
2509.7091108672
 30
0.0
 11
3865.4603909372
 21
5509.7091108672
 31
0.0
  0
LINE
  5
1E3
330
1F
100
AcDbEntity
  8
0
  6
Continuous
 62
     7
370
    15
100
AcDbLine
 10
3865.2972844566
 20
5509.7091108672
 30
0.0
 11
3865.4603909372
 21
5509.7091108672
 31
0.0
  0
LINE
  5
1E4
330
1F
100
AcDbEntity
  8
0
  6
Continuous
 62
     7
370
    15
100
AcDbLine
 10
3865.2972844566
 20
2509.7091108672
 30
0.0
 11
3865.4603909372
 21
2509.7091108672
 31
0.0
  0
LINE
  5
1E5
330
1F
100
AcDbEntity
  8
0
  6
Continuous
 62
     7
370
    15
100
AcDbLine
 10
3860.2146913899
 20
2509.7091108672
 30
0.0
 11
3860.2146913899
 21
5509.7091108672
 31
0.0
  0
LINE
  5
1E6
330
1F
100
AcDbEntity
  8
0
  6
Continuous
 62
     7
370
    15
100
AcDbLine
 10
3860.2146913899
 20
5509.7091108672
 30
0.0
 11
3860.3777978706
 21
5509.7091108672
 31
0.0
  0
LINE
  5
1E7
330
1F
100
AcDbEntity
  8
0
  6
Continuous
 62
     7
370
    15
100
AcDbLine
 10
3860.2146913899
 20
2509.7091108672
 30
0.0
 11
3860.3777978706
 21
2509.7091108672
 31
0.0
  0
LINE
  5
1E8
330
1F
100
AcDbEntity
  8
0
  6
Continuous
 62
     7
370
    15
100
AcDbLine
 10
3865.6175816568
 20
2509.7091108672
 30
0.0
 11
3865.6175816568
 21
5509.7091108672
 31
0.0
  0
LINE
  5
1E9
330
1F
100
AcDbEntity
  8
0
  6
Continuous
 62
     7
370
    15
100
AcDbLine
 10
3865.4603909372
 20
5509.7091108672
 30
0.0
 11
3865.6175816568
 21
5509.7091108672
 31
0.0
  0
LINE
  5
1EA
330
1F
100
AcDbEntity
  8
0
  6
Continuous
 62
     7
370
    15
100
AcDbLine
 10
3865.4603909372
 20
2509.7091108672
 30
0.0
 11
3865.6175816568
 21
2509.7091108672
 31
0.0
  0
LINE
  5
1EB
330
1F
100
AcDbEntity
  8
0
  6
Continuous
 62
     7
370
    15
100
AcDbLine
 10
3860.0575006703
 20
2509.7091108672
 30
0.0
 11
3860.0575006703
 21
5509.7091108672
 31
0.0
  0
LINE
  5
1EC
330
1F
100
AcDbEntity
  8
0
  6
Continuous
 62
     7
370
    15
100
AcDbLine
 10
3860.0575006703
 20
5509.7091108672
 30
0.0
 11
3860.2146913899
 21
5509.7091108672
 31
0.0
  0
LINE
  5
1ED
330
1F
100
AcDbEntity
  8
0
  6
Continuous
 62
     7
370
    15
100
AcDbLine
 10
3860.0575006703
 20
2509.7091108672
 30
0.0
 11
3860.2146913899
 21
2509.7091108672
 31
0.0
  0
LINE
  5
1EE
330
1F
100
AcDbEntity
  8
0
  6
Continuous
 62
     7
370
    15
100
AcDbLine
 10
3867.1735895468
 20
2509.7091108672
 30
0.0
 11
3867.1735895468
 21
5509.7091108672
 31
0.0
  0
LINE
  5
1EF
330
1F
100
AcDbEntity
  8
0
  6
Continuous
 62
     7
370
    15
100
AcDbLine
 10
3867.1735895468
 20
5509.7091108672
 30
0.0
 11
3865.6175816568
 21
5509.7091108672
 31
0.0
  0
LINE
  5
1F0
330
1F
100
AcDbEntity
  8
0
  6
Continuous
 62
     7
370
    15
100
AcDbLine
 10
3867.1735895468
 20
2509.7091108672
 30
0.0
 11
3865.6175816568
 21
2509.7091108672
 31
0.0
  0
LINE
  5
1F1
330
1F
100
AcDbEntity
  8
0
  6
Continuous
 62
     7
370
    15
100
AcDbLine
 10
3858.5014927803
 20
2509.7091108672
 30
0.0
 11
3858.5014927803
 21
5509.7091108672
 31
0.0
  0
LINE
  5
1F2
330
1F
100
AcDbEntity
  8
0
  6
Continuous
 62
     7
370
    15
100
AcDbLine
 10
3858.5014927803
 20
5509.7091108672
 30
0.0
 11
3860.0575006703
 21
5509.7091108672
 31
0.0
  0
LINE
  5
1F3
330
1F
100
AcDbEntity
  8
0
  6
Continuous
 62
     7
370
    15
100
AcDbLine
 10
3858.5014927803
 20
2509.7091108672
 30
0.0
 11
3860.0575006703
 21
2509.7091108672
 31
0.0
  0
LINE
  5
1F4
330
1F
100
AcDbEntity
  8
0
  6
Continuous
 62
     7
370
    15
100
AcDbLine
 10
3858.3789903341
 20
2509.7091108672
 30
0.0
 11
3858.3789903341
 21
5509.7091108672
 31
0.0
  0
LINE
  5
1F5
330
1F
100
AcDbEntity
  8
0
  6
Continuous
 62
     7
370
    15
100
AcDbLine
 10
3858.3789903341
 20
5509.7091108672
 30
0.0
 11
3858.5014927803
 21
5509.7091108672
 31
0.0
  0
LINE
  5
1F6
330
1F
100
AcDbEntity
  8
0
  6
Continuous
 62
     7
370
    15
100
AcDbLine
 10
3858.3789903341
 20
2509.7091108672
 30
0.0
 11
3858.5014927803
 21
2509.7091108672
 31
0.0
  0
LINE
  5
1F7
330
1F
100
AcDbEntity
  8
0
  6
Continuous
 62
     7
370
    15
100
AcDbLine
 10
3867.296091993
 20
2509.7091108672
 30
0.0
 11
3867.296091993
 21
5509.7091108672
 31
0.0
  0
LINE
  5
1F8
330
1F
100
AcDbEntity
  8
0
  6
Continuous
 62
     7
370
    15
100
AcDbLine
 10
3867.1735895468
 20
5509.7091108672
 30
0.0
 11
3867.296091993
 21
5509.7091108672
 31
0.0
  0
LINE
  5
1F9
330
1F
100
AcDbEntity
  8
0
  6
Continuous
 62
     7
370
    15
100
AcDbLine
 10
3867.1735895468
 20
2509.7091108672
 30
0.0
 11
3867.296091993
 21
2509.7091108672
 31
0.0
  0
LINE
  5
1FA
330
1F
100
AcDbEntity
  8
0
  6
Continuous
 62
     7
370
    15
100
AcDbLine
 10
3867.4136649488
 20
2509.7091108672
 30
0.0
 11
3867.4136649488
 21
5509.7091108672
 31
0.0
  0
LINE
  5
1FB
330
1F
100
AcDbEntity
  8
0
  6
Continuous
 62
     7
370
    15
100
AcDbLine
 10
3867.296091993
 20
5509.7091108672
 30
0.0
 11
3867.4136649488
 21
5509.7091108672
 31
0.0
  0
LINE
  5
1FC
330
1F
100
AcDbEntity
  8
0
  6
Continuous
 62
     7
370
    15
100
AcDbLine
 10
3867.296091993
 20
2509.7091108672
 30
0.0
 11
3867.4136649488
 21
2509.7091108672
 31
0.0
  0
LINE
  5
1FD
330
1F
100
AcDbEntity
  8
0
  6
Continuous
 62
     7
370
    15
100
AcDbLine
 10
3858.2614173783
 20
2509.7091108672
 30
0.0
 11
3858.2614173783
 21
5509.7091108672
 31
0.0
  0
LINE
  5
1FE
330
1F
100
AcDbEntity
  8
0
  6
Continuous
 62
     7
370
    15
100
AcDbLine
 10
3858.2614173783
 20
5509.7091108672
 30
0.0
 11
3858.3789903341
 21
5509.7091108672
 31
0.0
  0
LINE
  5
1FF
330
1F
100
AcDbEntity
  8
0
  6
Continuous
 62
     7
370
    15
100
AcDbLine
 10
3858.2614173783
 20
2509.7091108672
 30
0.0
 11
3858.3789903341
 21
2509.7091108672
 31
0.0
  0
LINE
  5
200
330
1F
100
AcDbEntity
  8
0
  6
Continuous
 62
     7
370
    15
100
AcDbLine
 10
3867.5258716239
 20
2509.7091108672
 30
0.0
 11
3867.5258716239
 21
5509.7091108672
 31
0.0
  0
LINE
  5
201
330
1F
100
AcDbEntity
  8
0
  6
Continuous
 62
     7
370
    15
100
AcDbLine
 10
3867.4136649488
 20
5509.7091108672
 30
0.0
 11
3867.5258716239
 21
5509.7091108672
 31
0.0
  0
LINE
  5
202
330
1F
100
AcDbEntity
  8
0
  6
Continuous
 62
     7
370
    15
100
AcDbLine
 10
3867.4136649488
 20
2509.7091108672
 30
0.0
 11
3867.5258716239
 21
2509.7091108672
 31
0.0
  0
LINE
  5
203
330
1F
100
AcDbEntity
  8
0
  6
Continuous
 62
     7
370
    15
100
AcDbLine
 10
3858.1492107032
 20
2509.7091108672
 30
0.0
 11
3858.1492107032
 21
5509.7091108672
 31
0.0
  0
LINE
  5
204
330
1F
100
AcDbEntity
  8
0
  6
Continuous
 62
     7
370
    15
100
AcDbLine
 10
3858.1492107032
 20
5509.7091108672
 30
0.0
 11
3858.2614173783
 21
5509.7091108672
 31
0.0
  0
LINE
  5
205
330
1F
100
AcDbEntity
  8
0
  6
Continuous
 62
     7
370
    15
100
AcDbLine
 10
3858.1492107032
 20
2509.7091108672
 30
0.0
 11
3858.2614173783
 21
2509.7091108672
 31
0.0
  0
LINE
  5
206
330
1F
100
AcDbEntity
  8
0
  6
Continuous
 62
     7
370
    15
100
AcDbLine
 10
3867.6322943202
 20
2509.7091108672
 30
0.0
 11
3867.6322943202
 21
5509.7091108672
 31
0.0
  0
LINE
  5
207
330
1F
100
AcDbEntity
  8
0
  6
Continuous
 62
     7
370
    15
100
AcDbLine
 10
3867.5258716239
 20
5509.7091108672
 30
0.0
 11
3867.6322943202
 21
5509.7091108672
 31
0.0
  0
LINE
  5
208
330
1F
100
AcDbEntity
  8
0
  6
Continuous
 62
     7
370
    15
100
AcDbLine
 10
3867.5258716239
 20
2509.7091108672
 30
0.0
 11
3867.6322943202
 21
2509.7091108672
 31
0.0
  0
LINE
  5
209
330
1F
100
AcDbEntity
  8
0
  6
Continuous
 62
     7
370
    15
100
AcDbLine
 10
3858.042788007
 20
2509.7091108672
 30
0.0
 11
3858.042788007
 21
5509.7091108672
 31
0.0
  0
LINE
  5
20A
330
1F
100
AcDbEntity
  8
0
  6
Continuous
 62
     7
370
    15
100
AcDbLine
 10
3858.042788007
 20
5509.7091108672
 30
0.0
 11
3858.1492107032
 21
5509.7091108672
 31
0.0
  0
LINE
  5
20B
330
1F
100
AcDbEntity
  8
0
  6
Continuous
 62
     7
370
    15
100
AcDbLine
 10
3858.042788007
 20
2509.7091108672
 30
0.0
 11
3858.1492107032
 21
2509.7091108672
 31
0.0
  0
LINE
  5
20C
330
1F
100
AcDbEntity
  8
0
  6
Continuous
 62
     7
370
    15
100
AcDbLine
 10
3867.7325376911
 20
2509.7091108672
 30
0.0
 11
3867.7325376911
 21
5509.7091108672
 31
0.0
  0
LINE
  5
20D
330
1F
100
AcDbEntity
  8
0
  6
Continuous
 62
     7
370
    15
100
AcDbLine
 10
3867.6322943202
 20
5509.7091108672
 30
0.0
 11
3867.7325376911
 21
5509.7091108672
 31
0.0
  0
LINE
  5
20E
330
1F
100
AcDbEntity
  8
0
  6
Continuous
 62
     7
370
    15
100
AcDbLine
 10
3867.6322943202
 20
2509.7091108672
 30
0.0
 11
3867.7325376911
 21
2509.7091108672
 31
0.0
  0
LINE
  5
20F
330
1F
100
AcDbEntity
  8
0
  6
Continuous
 62
     7
370
    15
100
AcDbLine
 10
3857.942544636
 20
2509.7091108672
 30
0.0
 11
3857.942544636
 21
5509.7091108672
 31
0.0
  0
LINE
  5
210
330
1F
100
AcDbEntity
  8
0
  6
Continuous
 62
     7
370
    15
100
AcDbLine
 10
3857.942544636
 20
5509.7091108672
 30
0.0
 11
3858.042788007
 21
5509.7091108672
 31
0.0
  0
LINE
  5
211
330
1F
100
AcDbEntity
  8
0
  6
Continuous
 62
     7
370
    15
100
AcDbLine
 10
3857.942544636
 20
2509.7091108672
 30
0.0
 11
3858.042788007
 21
2509.7091108672
 31
0.0
  0
LINE
  5
212
330
1F
100
AcDbEntity
  8
0
  6
Continuous
 62
     7
370
    15
100
AcDbLine
 10
3867.8262296735
 20
2509.7091108672
 30
0.0
 11
3867.8262296735
 21
5509.7091108672
 31
0.0
  0
LINE
  5
213
330
1F
100
AcDbEntity
  8
0
  6
Continuous
 62
     7
370
    15
100
AcDbLine
 10
3867.7325376911
 20
5509.7091108672
 30
0.0
 11
3867.8262296735
 21
5509.7091108672
 31
0.0
  0
LINE
  5
214
330
1F
100
AcDbEntity
  8
0
  6
Continuous
 62
     7
370
    15
100
AcDbLine
 10
3867.7325376911
 20
2509.7091108672
 30
0.0
 11
3867.8262296735
 21
2509.7091108672
 31
0.0
  0
LINE
  5
215
330
1F
100
AcDbEntity
  8
0
  6
Continuous
 62
     7
370
    15
100
AcDbLine
 10
3857.8488526536
 20
2509.7091108672
 30
0.0
 11
3857.8488526536
 21
5509.7091108672
 31
0.0
  0
LINE
  5
216
330
1F
100
AcDbEntity
  8
0
  6
Continuous
 62
     7
370
    15
100
AcDbLine
 10
3857.8488526536
 20
5509.7091108672
 30
0.0
 11
3857.942544636
 21
5509.7091108672
 31
0.0
  0
LINE
  5
217
330
1F
100
AcDbEntity
  8
0
  6
Continuous
 62
     7
370
    15
100
AcDbLine
 10
3857.8488526536
 20
2509.7091108672
 30
0.0
 11
3857.942544636
 21
2509.7091108672
 31
0.0
  0
LINE
  5
218
330
1F
100
AcDbEntity
  8
0
  6
Continuous
 62
     7
370
    15
100
AcDbLine
 10
3867.9130214868
 20
2509.7091108672
 30
0.0
 11
3867.9130214868
 21
5509.7091108672
 31
0.0
  0
LINE
  5
219
330
1F
100
AcDbEntity
  8
0
  6
Continuous
 62
     7
370
    15
100
AcDbLine
 10
3867.8262296735
 20
5509.7091108672
 30
0.0
 11
3867.9130214868
 21
5509.7091108672
 31
0.0
  0
LINE
  5
21A
330
1F
100
AcDbEntity
  8
0
  6
Continuous
 62
     7
370
    15
100
AcDbLine
 10
3867.8262296735
 20
2509.7091108672
 30
0.0
 11
3867.9130214868
 21
2509.7091108672
 31
0.0
  0
LINE
  5
21B
330
1F
100
AcDbEntity
  8
0
  6
Continuous
 62
     7
370
    15
100
AcDbLine
 10
3857.7620608403
 20
2509.7091108672
 30
0.0
 11
3857.7620608403
 21
5509.7091108672
 31
0.0
  0
LINE
  5
21C
330
1F
100
AcDbEntity
  8
0
  6
Continuous
 62
     7
370
    15
100
AcDbLine
 10
3857.7620608403
 20
5509.7091108672
 30
0.0
 11
3857.8488526536
 21
5509.7091108672
 31
0.0
  0
LINE
  5
21D
330
1F
100
AcDbEntity
  8
0
  6
Continuous
 62
     7
370
    15
100
AcDbLine
 10
3857.7620608403
 20
2509.7091108672
 30
0.0
 11
3857.8488526536
 21
2509.7091108672
 31
0.0
  0
LINE
  5
21E
330
1F
100
AcDbEntity
  8
0
  6
Continuous
 62
     7
370
    15
100
AcDbLine
 10
3867.9925908936
 20
2509.7091108672
 30
0.0
 11
3867.9925908936
 21
5509.7091108672
 31
0.0
  0
LINE
  5
21F
330
1F
100
AcDbEntity
  8
0
  6
Continuous
 62
     7
370
    15
100
AcDbLine
 10
3867.9130214868
 20
5509.7091108672
 30
0.0
 11
3867.9925908936
 21
5509.7091108672
 31
0.0
  0
LINE
  5
220
330
1F
100
AcDbEntity
  8
0
  6
Continuous
 62
     7
370
    15
100
AcDbLine
 10
3867.9130214868
 20
2509.7091108672
 30
0.0
 11
3867.9925908936
 21
2509.7091108672
 31
0.0
  0
LINE
  5
221
330
1F
100
AcDbEntity
  8
0
  6
Continuous
 62
     7
370
    15
100
AcDbLine
 10
3857.6824914335
 20
2509.7091108672
 30
0.0
 11
3857.6824914335
 21
5509.7091108672
 31
0.0
  0
LINE
  5
222
330
1F
100
AcDbEntity
  8
0
  6
Continuous
 62
     7
370
    15
100
AcDbLine
 10
3857.6824914335
 20
5509.7091108672
 30
0.0
 11
3857.7620608403
 21
5509.7091108672
 31
0.0
  0
LINE
  5
223
330
1F
100
AcDbEntity
  8
0
  6
Continuous
 62
     7
370
    15
100
AcDbLine
 10
3857.6824914335
 20
2509.7091108672
 30
0.0
 11
3857.7620608403
 21
2509.7091108672
 31
0.0
  0
LINE
  5
224
330
1F
100
AcDbEntity
  8
0
  6
Continuous
 62
     7
370
    15
100
AcDbLine
 10
3856.3921873128
 20
2509.7091108672
 30
0.0
 11
3856.3921873128
 21
5509.7091108672
 31
0.0
  0
LINE
  5
225
330
1F
100
AcDbEntity
  8
0
  6
Continuous
 62
     7
370
    15
100
AcDbLine
 10
3856.3921873128
 20
5509.7091108672
 30
0.0
 11
3857.6824914335
 21
5509.7091108672
 31
0.0
  0
LINE
  5
226
330
1F
100
AcDbEntity
  8
0
  6
Continuous
 62
     7
370
    15
100
AcDbLine
 10
3856.3921873128
 20
2509.7091108672
 30
0.0
 11
3857.6824914335
 21
2509.7091108672
 31
0.0
  0
LINE
  5
227
330
1F
100
AcDbEntity
  8
0
  6
Continuous
 62
     7
370
    15
100
AcDbLine
 10
3869.2828950143
 20
2509.7091108672
 30
0.0
 11
3869.2828950143
 21
5509.7091108672
 31
0.0
  0
LINE
  5
228
330
1F
100
AcDbEntity
  8
0
  6
Continuous
 62
     7
370
    15
100
AcDbLine
 10
3869.2828950143
 20
5509.7091108672
 30
0.0
 11
3867.9925908936
 21
5509.7091108672
 31
0.0
  0
LINE
  5
229
330
1F
100
AcDbEntity
  8
0
  6
Continuous
 62
     7
370
    15
100
AcDbLine
 10
3869.2828950143
 20
2509.7091108672
 30
0.0
 11
3867.9925908936
 21
2509.7091108672
 31
0.0
  0
LINE
  5
22A
330
1F
100
AcDbEntity
  8
0
  6
Continuous
 62
     7
370
    15
100
AcDbLine
 10
3869.3972805186
 20
2509.7091108672
 30
0.0
 11
3869.3972805186
 21
5509.7091108672
 31
0.0
  0
LINE
  5
22B
330
1F
100
AcDbEntity
  8
0
  6
Continuous
 62
     7
370
    15
100
AcDbLine
 10
3869.2828950143
 20
5509.7091108672
 30
0.0
 11
3869.3972805186
 21
5509.7091108672
 31
0.0
  0
LINE
  5
22C
330
1F
100
AcDbEntity
  8
0
  6
Continuous
 62
     7
370
    15
100
AcDbLine
 10
3869.2828950143
 20
2509.7091108672
 30
0.0
 11
3869.3972805186
 21
2509.7091108672
 31
0.0
  0
LINE
  5
22D
330
1F
100
AcDbEntity
  8
0
  6
Continuous
 62
     7
370
    15
100
AcDbLine
 10
3856.2778018086
 20
2509.7091108672
 30
0.0
 11
3856.2778018086
 21
5509.7091108672
 31
0.0
  0
LINE
  5
22E
330
1F
100
AcDbEntity
  8
0
  6
Continuous
 62
     7
370
    15
100
AcDbLine
 10
3856.2778018086
 20
5509.7091108672
 30
0.0
 11
3856.3921873128
 21
5509.7091108672
 31
0.0
  0
LINE
  5
22F
330
1F
100
AcDbEntity
  8
0
  6
Continuous
 62
     7
370
    15
100
AcDbLine
 10
3856.2778018086
 20
2509.7091108672
 30
0.0
 11
3856.3921873128
 21
2509.7091108672
 31
0.0
  0
LINE
  5
230
330
1F
100
AcDbEntity
  8
0
  6
Continuous
 62
     7
370
    15
100
AcDbLine
 10
3869.4901920526
 20
2509.7091108672
 30
0.0
 11
3869.4901920526
 21
5509.7091108672
 31
0.0
  0
LINE
  5
231
330
1F
100
AcDbEntity
  8
0
  6
Continuous
 62
     7
370
    15
100
AcDbLine
 10
3869.3972805186
 20
5509.7091108672
 30
0.0
 11
3869.4901920526
 21
5509.7091108672
 31
0.0
  0
LINE
  5
232
330
1F
100
AcDbEntity
  8
0
  6
Continuous
 62
     7
370
    15
100
AcDbLine
 10
3869.3972805186
 20
2509.7091108672
 30
0.0
 11
3869.4901920526
 21
2509.7091108672
 31
0.0
  0
LINE
  5
233
330
1F
100
AcDbEntity
  8
0
  6
Continuous
 62
     7
370
    15
100
AcDbLine
 10
3856.1848902745
 20
2509.7091108672
 30
0.0
 11
3856.1848902745
 21
5509.7091108672
 31
0.0
  0
LINE
  5
234
330
1F
100
AcDbEntity
  8
0
  6
Continuous
 62
     7
370
    15
100
AcDbLine
 10
3856.1848902745
 20
5509.7091108672
 30
0.0
 11
3856.2778018086
 21
5509.7091108672
 31
0.0
  0
LINE
  5
235
330
1F
100
AcDbEntity
  8
0
  6
Continuous
 62
     7
370
    15
100
AcDbLine
 10
3856.1848902745
 20
2509.7091108672
 30
0.0
 11
3856.2778018086
 21
2509.7091108672
 31
0.0
  0
LINE
  5
236
330
1F
100
AcDbEntity
  8
0
  6
Continuous
 62
     7
370
    15
100
AcDbLine
 10
3869.5606968968
 20
2509.7091108672
 30
0.0
 11
3869.5606968968
 21
5509.7091108672
 31
0.0
  0
LINE
  5
237
330
1F
100
AcDbEntity
  8
0
  6
Continuous
 62
     7
370
    15
100
AcDbLine
 10
3869.4901920526
 20
5509.7091108672
 30
0.0
 11
3869.5606968968
 21
5509.7091108672
 31
0.0
  0
LINE
  5
238
330
1F
100
AcDbEntity
  8
0
  6
Continuous
 62
     7
370
    15
100
AcDbLine
 10
3869.4901920526
 20
2509.7091108672
 30
0.0
 11
3869.5606968968
 21
2509.7091108672
 31
0.0
  0
LINE
  5
239
330
1F
100
AcDbEntity
  8
0
  6
Continuous
 62
     7
370
    15
100
AcDbLine
 10
3856.1143854304
 20
2509.7091108672
 30
0.0
 11
3856.1143854304
 21
5509.7091108672
 31
0.0
  0
LINE
  5
23A
330
1F
100
AcDbEntity
  8
0
  6
Continuous
 62
     7
370
    15
100
AcDbLine
 10
3856.1143854304
 20
5509.7091108672
 30
0.0
 11
3856.1848902745
 21
5509.7091108672
 31
0.0
  0
LINE
  5
23B
330
1F
100
AcDbEntity
  8
0
  6
Continuous
 62
     7
370
    15
100
AcDbLine
 10
3856.1143854304
 20
2509.7091108672
 30
0.0
 11
3856.1848902745
 21
2509.7091108672
 31
0.0
  0
LINE
  5
23C
330
1F
100
AcDbEntity
  8
0
  6
Continuous
 62
     7
370
    15
100
AcDbLine
 10
3869.6080863146
 20
2509.7091108672
 30
0.0
 11
3869.6080863146
 21
5509.7091108672
 31
0.0
  0
LINE
  5
23D
330
1F
100
AcDbEntity
  8
0
  6
Continuous
 62
     7
370
    15
100
AcDbLine
 10
3869.5606968968
 20
5509.7091108672
 30
0.0
 11
3869.6080863146
 21
5509.7091108672
 31
0.0
  0
LINE
  5
23E
330
1F
100
AcDbEntity
  8
0
  6
Continuous
 62
     7
370
    15
100
AcDbLine
 10
3869.5606968968
 20
2509.7091108672
 30
0.0
 11
3869.6080863146
 21
2509.7091108672
 31
0.0
  0
LINE
  5
23F
330
1F
100
AcDbEntity
  8
0
  6
Continuous
 62
     7
370
    15
100
AcDbLine
 10
3856.0669960125
 20
2509.7091108672
 30
0.0
 11
3856.0669960125
 21
5509.7091108672
 31
0.0
  0
LINE
  5
240
330
1F
100
AcDbEntity
  8
0
  6
Continuous
 62
     7
370
    15
100
AcDbLine
 10
3856.0669960125
 20
5509.7091108672
 30
0.0
 11
3856.1143854304
 21
5509.7091108672
 31
0.0
  0
LINE
  5
241
330
1F
100
AcDbEntity
  8
0
  6
Continuous
 62
     7
370
    15
100
AcDbLine
 10
3856.0669960125
 20
2509.7091108672
 30
0.0
 11
3856.1143854304
 21
2509.7091108672
 31
0.0
  0
LINE
  5
242
330
1F
100
AcDbEntity
  8
0
  6
Continuous
 62
     7
370
    15
100
AcDbLine
 10
3869.7721019989
 20
2509.7091108672
 30
0.0
 11
3869.7721019989
 21
5509.7091108672
 31
0.0
  0
LINE
  5
243
330
1F
100
AcDbEntity
  8
0
  6
Continuous
 62
     7
370
    15
100
AcDbLine
 10
3869.7721019989
 20
5509.7091108672
 30
0.0
 11
3869.6080863146
 21
5509.7091108672
 31
0.0
  0
LINE
  5
244
330
1F
100
AcDbEntity
  8
0
  6
Continuous
 62
     7
370
    15
100
AcDbLine
 10
3869.7721019989
 20
2509.7091108672
 30
0.0
 11
3869.6080863146
 21
2509.7091108672
 31
0.0
  0
LINE
  5
245
330
1F
100
AcDbEntity
  8
0
  6
Continuous
 62
     7
370
    15
100
AcDbLine
 10
3855.9029803282
 20
2509.7091108672
 30
0.0
 11
3855.9029803282
 21
5509.7091108672
 31
0.0
  0
LINE
  5
246
330
1F
100
AcDbEntity
  8
0
  6
Continuous
 62
     7
370
    15
100
AcDbLine
 10
3855.9029803282
 20
5509.7091108672
 30
0.0
 11
3856.0669960125
 21
5509.7091108672
 31
0.0
  0
LINE
  5
247
330
1F
100
AcDbEntity
  8
0
  6
Continuous
 62
     7
370
    15
100
AcDbLine
 10
3855.9029803282
 20
2509.7091108672
 30
0.0
 11
3856.0669960125
 21
2509.7091108672
 31
0.0
  0
LINE
  5
248
330
1F
100
AcDbEntity
  8
0
  6
Continuous
 62
     7
370
    15
100
AcDbLine
 10
3869.7970232597
 20
2509.7091108672
 30
0.0
 11
3869.7970232597
 21
5509.7091108672
 31
0.0
  0
LINE
  5
249
330
1F
100
AcDbEntity
  8
0
  6
Continuous
 62
     7
370
    15
100
AcDbLine
 10
3869.7721019989
 20
5509.7091108672
 30
0.0
 11
3869.7970232597
 21
5509.7091108672
 31
0.0
  0
LINE
  5
24A
330
1F
100
AcDbEntity
  8
0
  6
Continuous
 62
     7
370
    15
100
AcDbLine
 10
3869.7721019989
 20
2509.7091108672
 30
0.0
 11
3869.7970232597
 21
2509.7091108672
 31
0.0
  0
LINE
  5
24B
330
1F
100
AcDbEntity
  8
0
  6
Continuous
 62
     7
370
    15
100
AcDbLine
 10
3855.8780590674
 20
2509.7091108672
 30
0.0
 11
3855.8780590674
 21
5509.7091108672
 31
0.0
  0
LINE
  5
24C
330
1F
100
AcDbEntity
  8
0
  6
Continuous
 62
     7
370
    15
100
AcDbLine
 10
3855.8780590674
 20
5509.7091108672
 30
0.0
 11
3855.9029803282
 21
5509.7091108672
 31
0.0
  0
LINE
  5
24D
330
1F
100
AcDbEntity
  8
0
  6
Continuous
 62
     7
370
    15
100
AcDbLine
 10
3855.8780590674
 20
2509.7091108672
 30
0.0
 11
3855.9029803282
 21
2509.7091108672
 31
0.0
  0
LINE
  5
24E
330
1F
100
AcDbEntity
  8
0
  6
Continuous
 62
     7
370
    15
100
AcDbLine
 10
3869.7970232597
 20
5509.7091108672
 30
0.0
 11
3869.7988672784
 21
5509.7091108672
 31
0.0
  0
LINE
  5
24F
330
1F
100
AcDbEntity
  8
0
  6
Continuous
 62
     7
370
    15
100
AcDbLine
 10
3869.7970232597
 20
2509.7091108672
 30
0.0
 11
3869.7988672784
 21
2509.7091108672
 31
0.0
  0
LINE
  5
250
330
1F
100
AcDbEntity
  8
0
  6
Continuous
 62
     7
370
    15
100
AcDbLine
 10
3855.8762150487
 20
5509.7091108672
 30
0.0
 11
3855.8780590674
 21
5509.7091108672
 31
0.0
  0
LINE
  5
251
330
1F
100
AcDbEntity
  8
0
  6
Continuous
 62
     7
370
    15
100
AcDbLine
 10
3855.8762150487
 20
2509.7091108672
 30
0.0
 11
3855.8780590674
 21
2509.7091108672
 31
0.0
  0
ARC
  5
252
330
1F
100
AcDbEntity
  8
0
  6
Continuous
 62
     7
370
    15
100
AcDbCircle
 10
9685.1840809165
 20
4389.1395616164
 30
0.0
 40
1.499988881275478
100
AcDbArc
 50
109.8163485487
 51
114.3647441312
  0
ARC
  5
253
330
1F
100
AcDbEntity
  8
0
  6
Continuous
 62
     7
370
    15
100
AcDbCircle
 10
9685.2059300449
 20
4389.0787940743
 30
0.0
 40
1.564565011674921
100
AcDbArc
 50
105.3922079255
 51
109.814690647
  0
ARC
  5
254
330
1F
100
AcDbEntity
  8
0
  6
Continuous
 62
     7
370
    15
100
AcDbCircle
 10
9685.2258287727
 20
4389.0064729107
 30
0.0
 40
1.639573744249439
100
AcDbArc
 50
101.1049855037
 51
105.3918286121
  0
ARC
  5
255
330
1F
100
AcDbEntity
  8
0
  6
Continuous
 62
     7
370
    15
100
AcDbCircle
 10
9685.2422530907
 20
4388.9228637973
 30
0.0
 40
1.724780797361396
100
AcDbArc
 50
96.9610148049
 51
101.1054192672
  0
ARC
  5
256
330
1F
100
AcDbEntity
  8
0
  6
Continuous
 62
     7
370
    15
100
AcDbCircle
 10
9685.2536859854
 20
4388.8292770214
 30
0.0
 40
1.819063328400494
100
AcDbArc
 50
92.9615678507
 51
96.9612185465
  0
ARC
  5
257
330
1F
100
AcDbEntity
  8
0
  6
Continuous
 62
     7
370
    15
100
AcDbCircle
 10
9685.2589359611
 20
4388.7279782579
 30
0.0
 40
1.920498044603831
100
AcDbArc
 50
89.1042901686
 51
92.9618438798
  0
ARC
  5
258
330
1F
100
AcDbEntity
  8
0
  6
Continuous
 62
     7
370
    15
100
AcDbCircle
 10
9685.2572764429
 20
4388.6205143837
 30
0.0
 40
2.027974729755742
100
AcDbArc
 50
85.3847967348
 51
89.1048724026
  0
LINE
  5
259
330
1F
100
AcDbEntity
  8
0
  6
Continuous
 62
     7
370
    15
100
AcDbLine
 10
9686.1064031145
 20
4390.5867432842
 30
0.0
 11
9685.4204542128
 21
4390.6419135328
 31
0.0
  0
ARC
  5
25A
330
1F
100
AcDbEntity
  8
0
  6
Continuous
 62
     7
370
    15
100
AcDbCircle
 10
9686.2716265434
 20
4392.6395689916
 30
0.0
 40
2.059464048370114
100
AcDbArc
 50
265.3984194878
 51
266.9230659263
  0
ARC
  5
25B
330
1F
100
AcDbEntity
  8
0
  6
Continuous
 62
     7
370
    15
100
AcDbCircle
 10
9686.2692500523
 20
4392.5950005891
 30
0.0
 40
2.014832334972934
100
AcDbArc
 50
266.9225192196
 51
268.4693211028
  0
LINE
  5
25C
330
1F
100
AcDbEntity
  8
0
  6
Continuous
 62
     7
370
    15
100
AcDbLine
 10
9687.0278852176
 20
4390.5592196816
 30
0.0
 11
9686.2154294303
 21
4390.5808872162
 31
0.0
  0
ARC
  5
25D
330
1F
100
AcDbEntity
  8
0
  6
Continuous
 62
     7
370
    15
100
AcDbCircle
 10
9686.9727856144
 20
4388.5144493957
 30
0.0
 40
2.045512524649717
100
AcDbArc
 50
84.861261258
 51
88.4564471837
  0
ARC
  5
25E
330
1F
100
AcDbEntity
  8
0
  6
Continuous
 62
     7
370
    15
100
AcDbCircle
 10
9686.9629866549
 20
4388.4052378038
 30
0.0
 40
2.155162836714556
100
AcDbArc
 50
81.3898212819
 51
84.861853002
  0
ARC
  5
25F
330
1F
100
AcDbEntity
  8
0
  6
Continuous
 62
     7
370
    15
100
AcDbCircle
 10
9686.9462647402
 20
4388.2947357395
 30
0.0
 40
2.266922975215049
100
AcDbArc
 50
78.0331569109
 51
81.3900719742
  0
ARC
  5
260
330
1F
100
AcDbEntity
  8
0
  6
Continuous
 62
     7
370
    15
100
AcDbCircle
 10
9686.9101523711
 20
4388.1317306252
 30
0.0
 40
2.433873843777314
100
AcDbArc
 50
71.5938149905
 51
77.9971586924
  0
ARC
  5
261
330
1F
100
AcDbEntity
  8
0
  6
Continuous
 62
     7
370
    15
100
AcDbCircle
 10
9686.8602347379
 20
4387.9763869998
 30
0.0
 40
2.597032502569078
100
AcDbArc
 50
68.5648545063
 51
71.6310123011
  0
ARC
  5
262
330
1F
100
AcDbEntity
  8
0
  6
Continuous
 62
     7
370
    15
100
AcDbCircle
 10
9686.8228137394
 20
4387.8809834182
 30
0.0
 40
2.699512615317892
100
AcDbArc
 50
65.5776009569
 51
68.565541662
  0
ARC
  5
263
330
1F
100
AcDbEntity
  8
0
  6
Continuous
 62
     7
370
    15
100
AcDbCircle
 10
9686.7837053021
 20
4387.7947542946
 30
0.0
 40
2.794195928653533
100
AcDbArc
 50
62.6583265711
 51
65.5784874664
  0
LINE
  5
264
330
1F
100
AcDbEntity
  8
0
  6
Continuous
 62
     7
370
    15
100
AcDbLine
 10
9688.067067641
 20
4390.2767921659
 30
0.0
 11
9688.8795234283
 21
4389.8568435522
 31
0.0
  0
ARC
  5
265
330
1F
100
AcDbEntity
  8
0
  6
Continuous
 62
     7
370
    15
100
AcDbCircle
 10
9690.1745372235
 20
4392.3621111845
 30
0.0
 40
2.820182022347472
100
AcDbArc
 50
242.6648183623
 51
243.9009753602
  0
ARC
  5
266
330
1F
100
AcDbEntity
  8
0
  6
Continuous
 62
     7
370
    15
100
AcDbCircle
 10
9690.1590387415
 20
4392.3305370842
 30
0.0
 40
2.78500922097819
100
AcDbArc
 50
243.9015509798
 51
245.1476130167
  0
LINE
  5
267
330
1F
100
AcDbEntity
  8
0
  6
Continuous
 62
     7
370
    15
100
AcDbLine
 10
9688.9885497441
 20
4389.8034375872
 30
0.0
 11
9689.6744986458
 21
4389.4857558082
 31
0.0
  0
ARC
  5
268
330
1F
100
AcDbEntity
  8
0
  6
Continuous
 62
     7
370
    15
100
AcDbCircle
 10
9688.4937001446
 20
4386.9371239561
 30
0.0
 40
2.808880456352142
100
AcDbArc
 50
62.1476341017
 51
65.1413891896
  0
ARC
  5
269
330
1F
100
AcDbEntity
  8
0
  6
Continuous
 62
     7
370
    15
100
AcDbCircle
 10
9688.4536814648
 20
4386.8612226724
 30
0.0
 40
2.894685431161244
100
AcDbArc
 50
59.2146018266
 51
62.149178071
  0
ARC
  5
26A
330
1F
100
AcDbEntity
  8
0
  6
Continuous
 62
     7
370
    15
100
AcDbCircle
 10
9688.4153070064
 20
4386.7966248493
 30
0.0
 40
2.96982176656341
100
AcDbArc
 50
56.3316078261
 51
59.2164459166
  0
ARC
  5
26B
330
1F
100
AcDbEntity
  8
0
  6
Continuous
 62
     7
370
    15
100
AcDbCircle
 10
9688.3805642313
 20
4386.7443347149
 30
0.0
 40
3.032601645820498
100
AcDbArc
 50
53.4884061636
 51
56.3330033133
  0
ARC
  5
26C
330
1F
100
AcDbEntity
  8
0
  6
Continuous
 62
     7
370
    15
100
AcDbCircle
 10
9688.3520645028
 20
4386.7057862362
 30
0.0
 40
3.080541387991041
100
AcDbArc
 50
50.6741098055
 51
53.4889550621
  0
ARC
  5
26D
330
1F
100
AcDbEntity
  8
0
  6
Continuous
 62
     7
370
    15
100
AcDbCircle
 10
9688.3321387032
 20
4386.6814211599
 30
0.0
 40
3.112016675017729
100
AcDbArc
 50
47.878651384
 51
50.6746107925
  0
ARC
  5
26E
330
1F
100
AcDbEntity
  8
0
  6
Continuous
 62
     7
370
    15
100
AcDbCircle
 10
9688.322167855
 20
4386.6702992714
 30
0.0
 40
3.126953547582272
100
AcDbArc
 50
45.092553272
 51
47.8798212669
  0
ARC
  5
26F
330
1F
100
AcDbEntity
  8
0
  6
Continuous
 62
     7
370
    15
100
AcDbCircle
 10
9688.3226766402
 20
4386.6707018324
 30
0.0
 40
3.12630925158067
100
AcDbArc
 50
42.3063669225
 51
45.0939489223
  0
ARC
  5
270
330
1F
100
AcDbEntity
  8
0
  6
Continuous
 62
     7
370
    15
100
AcDbCircle
 10
9668.4348069313
 20
4368.5702674627
 30
0.0
 40
30.01781508385167
100
AcDbArc
 50
40.724545235
 51
42.306119983
  0
ARC
  5
271
330
1F
100
AcDbEntity
  8
0
  6
Continuous
 62
     7
370
    15
100
AcDbCircle
 10
9668.5454741298
 20
4368.6654248068
 30
0.0
 40
29.87186255232174
100
AcDbArc
 50
39.1379748091
 51
40.7247109144
  0
ARC
  5
272
330
1F
100
AcDbEntity
  8
0
  6
Continuous
 62
     7
370
    15
100
AcDbCircle
 10
9668.6955608876
 20
4368.7874609642
 30
0.0
 40
29.67842302086283
100
AcDbArc
 50
37.544521707
 51
39.1381265015
  0
ARC
  5
273
330
1F
100
AcDbEntity
  8
0
  6
Continuous
 62
     7
370
    15
100
AcDbCircle
 10
9668.8885850282
 20
4368.9357102622
 30
0.0
 40
29.43503820897248
100
AcDbArc
 50
35.9435222171
 51
37.5446787873
  0
ARC
  5
274
330
1F
100
AcDbEntity
  8
0
  6
Continuous
 62
     7
370
    15
100
AcDbCircle
 10
9690.2830035389
 20
4384.4471994583
 30
0.0
 40
3.009152414250885
100
AcDbArc
 50
32.8941648258
 51
35.9476484494
  0
ARC
  5
275
330
1F
100
AcDbEntity
  8
0
  6
Continuous
 62
     7
370
    15
100
AcDbCircle
 10
9690.3434301492
 20
4384.4862119205
 30
0.0
 40
2.937226453429967
100
AcDbArc
 50
29.7923396139
 51
32.8953201596
  0
ARC
  5
276
330
1F
100
AcDbEntity
  8
0
  6
Continuous
 62
     7
370
    15
100
AcDbCircle
 10
9690.4185330198
 20
4384.5291656237
 30
0.0
 40
2.850707899165553
100
AcDbArc
 50
26.6277048567
 51
29.7931207334
  0
ARC
  5
277
330
1F
100
AcDbEntity
  8
0
  6
Continuous
 62
     7
370
    15
100
AcDbCircle
 10
9690.5072776124
 20
4384.573609375
 30
0.0
 40
2.75145646251054
100
AcDbArc
 50
23.38735436
 51
26.6286340446
  0
ARC
  5
278
330
1F
100
AcDbEntity
  8
0
  6
Continuous
 62
     7
370
    15
100
AcDbCircle
 10
9690.6074863555
 20
4384.6168578405
 30
0.0
 40
2.642313368572096
100
AcDbArc
 50
20.0589672949
 51
23.3891351082
  0
ARC
  5
279
330
1F
100
AcDbEntity
  8
0
  6
Continuous
 62
     7
370
    15
100
AcDbCircle
 10
9690.7160248414
 20
4384.6564111331
 30
0.0
 40
2.526792546856202
100
AcDbArc
 50
16.6299057154
 51
20.0606294454
  0
ARC
  5
27A
330
1F
100
AcDbEntity
  8
0
  6
Continuous
 62
     7
370
    15
100
AcDbCircle
 10
9690.8314260393
 20
4384.6908335192
 30
0.0
 40
2.40636690538624
100
AcDbArc
 50
13.0868816423
 51
16.6309506634
  0
ARC
  5
27B
330
1F
100
AcDbEntity
  8
0
  6
Continuous
 62
     7
370
    15
100
AcDbCircle
 10
9690.9513022043
 20
4384.7186758451
 30
0.0
 40
2.283299893468766
100
AcDbArc
 50
9.4171915293
 51
13.0874877985
  0
ARC
  5
27C
330
1F
100
AcDbEntity
  8
0
  6
Continuous
 62
     7
370
    15
100
AcDbCircle
 10
9708.1209539906
 20
4387.5628334857
 30
0.0
 40
15.12032550482207
100
AcDbArc
 50
189.4039096358
 51
191.1350124832
  0
ARC
  5
27D
330
1F
100
AcDbEntity
  8
0
  6
Continuous
 62
     7
370
    15
100
AcDbCircle
 10
9708.5008440409
 20
4387.6376024271
 30
0.0
 40
15.5075035580342
100
AcDbArc
 50
191.1349993158
 51
192.8371678589
  0
ARC
  5
27E
330
1F
100
AcDbEntity
  8
0
  6
Continuous
 62
     7
370
    15
100
AcDbCircle
 10
9708.8771171956
 20
4387.7233117232
 30
0.0
 40
15.89341490697928
100
AcDbArc
 50
192.8370462673
 51
194.5115806389
  0
ARC
  5
27F
330
1F
100
AcDbEntity
  8
0
  6
Continuous
 62
     7
370
    15
100
AcDbCircle
 10
9709.2501160869
 20
4387.8198121996
 30
0.0
 40
16.27869469250014
100
AcDbArc
 50
194.5114306009
 51
196.1594211219
  0
ARC
  5
280
330
1F
100
AcDbEntity
  8
0
  6
Continuous
 62
     7
370
    15
100
AcDbCircle
 10
9691.3559278941
 20
4382.6332401195
 30
0.0
 40
2.351992808540827
100
AcDbArc
 50
10.3854479318
 51
16.1961560072
  0
ARC
  5
281
330
1F
100
AcDbEntity
  8
0
  6
Continuous
 62
     7
370
    15
100
AcDbCircle
 10
9691.5513160177
 20
4382.6688780514
 30
0.0
 40
2.153381252785768
100
AcDbArc
 50
4.2268653973
 51
10.3899286198
  0
ARC
  5
282
330
1F
100
AcDbEntity
  8
0
  6
Continuous
 62
     7
370
    15
100
AcDbCircle
 10
9691.7420720561
 20
4382.6828473467
 30
0.0
 40
1.962114451516727
100
AcDbArc
 50
357.6730132653
 51
4.2306186334
  0
ARC
  5
283
330
1F
100
AcDbEntity
  8
0
  6
Continuous
 62
     7
370
    15
100
AcDbCircle
 10
9691.9167435491
 20
4382.675701749
 30
0.0
 40
1.787296867890633
100
AcDbArc
 50
350.696036984
 51
357.6745398525
  0
LINE
  5
284
330
1F
100
AcDbEntity
  8
0
  6
Continuous
 62
     7
370
    15
100
AcDbLine
 10
9693.6805276979
 20
4382.3867457482
 30
0.0
 11
9693.5354692545
 21
4381.5064879673
 31
0.0
  0
ARC
  5
285
330
1F
100
AcDbEntity
  8
0
  6
Continuous
 62
     7
370
    15
100
AcDbCircle
 10
9691.9148452577
 20
4381.7723060396
 30
0.0
 40
1.642279326617426
100
AcDbArc
 50
344.0065483869
 51
350.6851707421
  0
ARC
  5
286
330
1F
100
AcDbEntity
  8
0
  6
Continuous
 62
     7
370
    15
100
AcDbCircle
 10
9692.0236963693
 20
4381.7412043827
 30
0.0
 40
1.52907213539452
100
AcDbArc
 50
336.9987285457
 51
344.0030387633
  0
ARC
  5
287
330
1F
100
AcDbEntity
  8
0
  6
Continuous
 62
     7
370
    15
100
AcDbCircle
 10
9692.1035531574
 20
4381.7074722604
 30
0.0
 40
1.442383395818119
100
AcDbArc
 50
329.7100970428
 51
336.9926161953
  0
ARC
  5
288
330
1F
100
AcDbEntity
  8
0
  6
Continuous
 62
     7
370
    15
100
AcDbCircle
 10
9692.1536582202
 20
4381.6784433963
 30
0.0
 40
1.38447702182341
100
AcDbArc
 50
322.2171873499
 51
329.7015804822
  0
LINE
  5
289
330
1F
100
AcDbEntity
  8
0
  6
Continuous
 62
     7
370
    15
100
AcDbLine
 10
9693.2478641755
 20
4380.8302158612
 30
0.0
 11
9692.1066958287
 21
4379.3590557605
 31
0.0
  0
ARC
  5
28A
330
1F
100
AcDbEntity
  8
0
  6
Continuous
 62
     7
370
    15
100
AcDbCircle
 10
9691.0326177169
 20
4380.1921025213
 30
0.0
 40
1.359268441379214
100
AcDbArc
 50
317.596652381
 51
322.2031182878
  0
ARC
  5
28B
330
1F
100
AcDbEntity
  8
0
  6
Continuous
 62
     7
370
    15
100
AcDbCircle
 10
9691.0367314225
 20
4380.188437888
 30
0.0
 40
1.353759588213002
100
AcDbArc
 50
312.9751041074
 51
317.5937728899
  0
ARC
  5
28C
330
1F
100
AcDbEntity
  8
0
  6
Continuous
 62
     7
370
    15
100
AcDbCircle
 10
9691.0330117028
 20
4380.1925502302
 30
0.0
 40
1.359304046155221
100
AcDbArc
 50
308.3655681564
 51
312.9716574042
  0
ARC
  5
28D
330
1F
100
AcDbEntity
  8
0
  6
Continuous
 62
     7
370
    15
100
AcDbCircle
 10
9691.0227264015
 20
4380.2056516153
 30
0.0
 40
1.375960253214354
100
AcDbArc
 50
303.7937842148
 51
308.3627631075
  0
ARC
  5
28E
330
1F
100
AcDbEntity
  8
0
  6
Continuous
 62
     7
370
    15
100
AcDbCircle
 10
9691.0072463956
 20
4380.2289023816
 30
0.0
 40
1.403892747481583
100
AcDbArc
 50
299.2828719509
 51
303.791024314
  0
ARC
  5
28F
330
1F
100
AcDbEntity
  8
0
  6
Continuous
 62
     7
370
    15
100
AcDbCircle
 10
9690.9882380202
 20
4380.2629269733
 30
0.0
 40
1.442866935591318
100
AcDbArc
 50
294.8538897386
 51
299.2803794902
  0
ARC
  5
290
330
1F
100
AcDbEntity
  8
0
  6
Continuous
 62
     7
370
    15
100
AcDbCircle
 10
9690.9675496177
 20
4380.3077102266
 30
0.0
 40
1.492197933137885
100
AcDbArc
 50
290.5234182033
 51
294.8519560159
  0
ARC
  5
291
330
1F
100
AcDbEntity
  8
0
  6
Continuous
 62
     7
370
    15
100
AcDbCircle
 10
9690.9466812882
 20
4380.3635475737
 30
0.0
 40
1.551807458479244
100
AcDbArc
 50
286.3051630941
 51
290.5222281692
  0
LINE
  5
292
330
1F
100
AcDbEntity
  8
0
  6
Continuous
 62
     7
370
    15
100
AcDbLine
 10
9691.3823561959
 20
4378.8741538168
 30
0.0
 11
9690.0061946205
 21
4378.4712123102
 31
0.0
  0
ARC
  5
293
330
1F
100
AcDbEntity
  8
0
  6
Continuous
 62
     7
370
    15
100
AcDbCircle
 10
9689.5488031078
 20
4380.0357194124
 30
0.0
 40
1.629996769514933
100
AcDbArc
 50
281.2633540033
 51
286.2965459005
  0
ARC
  5
294
330
1F
100
AcDbEntity
  8
0
  6
Continuous
 62
     7
370
    15
100
AcDbCircle
 10
9689.5294436562
 20
4380.1330086572
 30
0.0
 40
1.729193469510726
100
AcDbArc
 50
276.4241058519
 51
281.2628289927
  0
ARC
  5
295
330
1F
100
AcDbEntity
  8
0
  6
Continuous
 62
     7
370
    15
100
AcDbCircle
 10
9689.5170115361
 20
4380.243420333
 30
0.0
 40
1.840302855898588
100
AcDbArc
 50
271.7822459132
 51
276.4241190496
  0
ARC
  5
296
330
1F
100
AcDbEntity
  8
0
  6
Continuous
 62
     7
370
    15
100
AcDbCircle
 10
9689.5132252171
 20
4380.3643030026
 30
0.0
 40
1.961244806642794
100
AcDbArc
 50
267.3339672213
 51
271.7829736387
  0
LINE
  5
297
330
1F
100
AcDbEntity
  8
0
  6
Continuous
 62
     7
370
    15
100
AcDbLine
 10
9688.0280137971
 20
4378.4695184712
 30
0.0
 11
9689.4219993648
 21
4378.4051809963
 31
0.0
  0
ARC
  5
298
330
1F
100
AcDbEntity
  8
0
  6
Continuous
 62
     7
370
    15
100
AcDbCircle
 10
9688.127933372
 20
4380.5921828533
 30
0.0
 40
2.125014823569977
100
AcDbArc
 50
260.831980311
 51
267.304921565
  0
ARC
  5
299
330
1F
100
AcDbEntity
  8
0
  6
Continuous
 62
     7
370
    15
100
AcDbCircle
 10
9688.1605259832
 20
4380.7954303384
 30
0.0
 40
2.330858889267069
100
AcDbArc
 50
254.7509959661
 51
260.8370737382
  0
ARC
  5
29A
330
1F
100
AcDbEntity
  8
0
  6
Continuous
 62
     7
370
    15
100
AcDbCircle
 10
9688.2139307244
 20
4380.9923734326
 30
0.0
 40
2.534914223608609
100
AcDbArc
 50
249.0024155219
 51
254.7571985147
  0
ARC
  5
29B
330
1F
100
AcDbEntity
  8
0
  6
Continuous
 62
     7
370
    15
100
AcDbCircle
 10
9688.2818262969
 20
4381.1700786934
 30
0.0
 40
2.725148001656604
100
AcDbArc
 50
243.5250842718
 51
249.0085100396
  0
LINE
  5
29C
330
1F
100
AcDbEntity
  8
0
  6
Continuous
 62
     7
370
    15
100
AcDbLine
 10
9687.0669390614
 20
4378.730717991
 30
0.0
 11
9685.6729534938
 21
4379.4240913317
 31
0.0
  0
ARC
  5
29D
330
1F
100
AcDbEntity
  8
0
  6
Continuous
 62
     7
370
    15
100
AcDbCircle
 10
9686.948574948
 20
4381.9874969791
 30
0.0
 40
2.863260136202537
100
AcDbArc
 50
240.0868673685
 51
243.5437938196
  0
ARC
  5
29E
330
1F
100
AcDbEntity
  8
0
  6
Continuous
 62
     7
370
    15
100
AcDbCircle
 10
9686.9944122778
 20
4382.067350507
 30
0.0
 40
2.955334229774722
100
AcDbArc
 50
236.7039092312
 51
240.0886292132
  0
ARC
  5
29F
330
1F
100
AcDbEntity
  8
0
  6
Continuous
 62
     7
370
    15
100
AcDbCircle
 10
9687.0351867013
 20
4382.129588182
 30
0.0
 40
3.029739032802013
100
AcDbArc
 50
233.3764318236
 51
236.705521666
  0
ARC
  5
2A0
330
1F
100
AcDbEntity
  8
0
  6
Continuous
 62
     7
370
    15
100
AcDbCircle
 10
9687.0677122505
 20
4382.1734986271
 30
0.0
 40
3.084383615557153
100
AcDbArc
 50
230.0884422311
 51
233.3781203526
  0
LINE
  5
2A1
330
1F
100
AcDbEntity
  8
0
  6
Continuous
 62
     7
370
    15
100
AcDbLine
 10
9683.7125966626
 20
4380.9586301149
 30
0.0
 11
9685.0887582381
 21
4379.8076661511
 31
0.0
  0
ARC
  5
2A2
330
1F
100
AcDbEntity
  8
0
  6
Continuous
 62
     7
370
    15
100
AcDbCircle
 10
9685.7115843674
 20
4383.3486204723
 30
0.0
 40
3.115767281452766
100
AcDbArc
 50
227.4413787894
 51
230.0908924576
  0
ARC
  5
2A3
330
1F
100
AcDbEntity
  8
0
  6
Continuous
 62
     7
370
    15
100
AcDbCircle
 10
9685.7201380591
 20
4383.3580020097
 30
0.0
 40
3.128462828028248
100
AcDbArc
 50
224.7999282798
 51
227.4421959948
  0
ARC
  5
2A4
330
1F
100
AcDbEntity
  8
0
  6
Continuous
 62
     7
370
    15
100
AcDbCircle
 10
9685.7186322078
 20
4383.3565524138
 30
0.0
 40
3.126372885260364
100
AcDbArc
 50
222.1571808122
 51
224.8005235437
  0
ARC
  5
2A5
330
1F
100
AcDbEntity
  8
0
  6
Continuous
 62
     7
370
    15
100
AcDbCircle
 10
9685.7055981896
 20
4383.3447865758
 30
0.0
 40
3.108813844889321
100
AcDbArc
 50
219.5043125824
 51
222.1576583187
  0
ARC
  5
2A6
330
1F
100
AcDbEntity
  8
0
  6
Continuous
 62
     7
370
    15
100
AcDbCircle
 10
9685.681001901
 20
4383.3245430722
 30
0.0
 40
3.0769582943242
100
AcDbArc
 50
216.8331841441
 51
219.5048186268
  0
ARC
  5
2A7
330
1F
100
AcDbEntity
  8
0
  6
Continuous
 62
     7
370
    15
100
AcDbCircle
 10
9685.6446081874
 20
4383.2973248455
 30
0.0
 40
3.03151235743475
100
AcDbArc
 50
214.1356120605
 51
216.833798895
  0
ARC
  5
2A8
330
1F
100
AcDbEntity
  8
0
  6
Continuous
 62
     7
370
    15
100
AcDbCircle
 10
9685.5959486488
 20
4383.2643553009
 30
0.0
 40
2.972735309930758
100
AcDbArc
 50
211.4022787101
 51
214.1359242062
  0
ARC
  5
2A9
330
1F
100
AcDbEntity
  8
0
  6
Continuous
 62
     7
370
    15
100
AcDbCircle
 10
9685.5351873124
 20
4383.2273018702
 30
0.0
 40
2.901567230003767
100
AcDbArc
 50
208.6245902208
 51
211.4029320546
  0
LINE
  5
2AA
330
1F
100
AcDbEntity
  8
0
  6
Continuous
 62
     7
370
    15
100
AcDbLine
 10
9681.8470886831
 20
4383.9287023509
 30
0.0
 11
9682.9882570298
 21
4381.8372520416
 31
0.0
  0
ARC
  5
2AB
330
1F
100
AcDbEntity
  8
0
  6
Continuous
 62
     7
370
    15
100
AcDbCircle
 10
9684.2971426956
 20
4385.2666552199
 30
0.0
 40
2.791573488913954
100
AcDbArc
 50
203.9500272044
 51
208.6385642616
  0
ARC
  5
2AC
330
1F
100
AcDbEntity
  8
0
  6
Continuous
 62
     7
370
    15
100
AcDbCircle
 10
9684.1544041678
 20
4385.2034606336
 30
0.0
 40
2.635471583259525
100
AcDbArc
 50
199.0822702157
 51
203.9541515891
  0
ARC
  5
2AD
330
1F
100
AcDbEntity
  8
0
  6
Continuous
 62
     7
370
    15
100
AcDbCircle
 10
9683.9923351798
 20
4385.147576008
 30
0.0
 40
2.464038164464417
100
AcDbArc
 50
193.9909798968
 51
199.0862396689
  0
ARC
  5
2AE
330
1F
100
AcDbEntity
  8
0
  6
Continuous
 62
     7
370
    15
100
AcDbCircle
 10
9683.8184122424
 20
4385.1043919974
 30
0.0
 40
2.284834303399867
100
AcDbArc
 50
188.6361234592
 51
193.9946484368
  0
LINE
  5
2AF
330
1F
100
AcDbEntity
  8
0
  6
Continuous
 62
     7
370
    15
100
AcDbLine
 10
9681.4144251606
 20
4385.720409587
 30
0.0
 11
9681.559483604
 21
4384.7613042528
 31
0.0
  0
ARC
  5
2B0
330
1F
100
AcDbEntity
  8
0
  6
Continuous
 62
     7
370
    15
100
AcDbCircle
 10
9683.4876736886
 20
4386.035737617
 30
0.0
 40
2.097091134215749
100
AcDbArc
 50
182.3752665712
 51
188.6480496236
  0
ARC
  5
2B1
330
1F
100
AcDbEntity
  8
0
  6
Continuous
 62
     7
370
    15
100
AcDbCircle
 10
9683.3002569807
 20
4386.0280640476
 30
0.0
 40
1.909517428769314
100
AcDbArc
 50
175.7007450471
 51
182.3782787235
  0
ARC
  5
2B2
330
1F
100
AcDbEntity
  8
0
  6
Continuous
 62
     7
370
    15
100
AcDbCircle
 10
9683.1319407765
 20
4386.0407512602
 30
0.0
 40
1.740723741895287
100
AcDbArc
 50
168.5992159806
 51
175.7018496698
  0
ARC
  5
2B3
330
1F
100
AcDbEntity
  8
0
  6
Continuous
 62
     7
370
    15
100
AcDbCircle
 10
9682.9914181978
 20
4386.0690163758
 30
0.0
 40
1.597386703484557
100
AcDbArc
 50
161.0753133896
 51
168.596712276
  0
ARC
  5
2B4
330
1F
100
AcDbEntity
  8
0
  6
Continuous
 62
     7
370
    15
100
AcDbCircle
 10
9671.6127101274
 20
4389.9792309966
 30
0.0
 40
10.43443720920164
100
AcDbArc
 50
341.0289087068
 51
343.2457099186
  0
ARC
  5
2B5
330
1F
100
AcDbEntity
  8
0
  6
Continuous
 62
     7
370
    15
100
AcDbCircle
 10
9671.3849138012
 20
4390.0477910245
 30
0.0
 40
10.67232719089111
100
AcDbArc
 50
343.2457998122
 51
345.429555057
  0
ARC
  5
2B6
330
1F
100
AcDbEntity
  8
0
  6
Continuous
 62
     7
370
    15
100
AcDbCircle
 10
9671.1368356255
 20
4390.1122554064
 30
0.0
 40
10.92864425525545
100
AcDbArc
 50
345.4296489863
 51
347.5790749565
  0
ARC
  5
2B7
330
1F
100
AcDbEntity
  8
0
  6
Continuous
 62
     7
370
    15
100
AcDbCircle
 10
9670.8708596986
 20
4390.1707929901
 30
0.0
 40
11.20098565985441
100
AcDbArc
 50
347.5792890524
 51
349.6937263394
  0
ARC
  5
2B8
330
1F
100
AcDbEntity
  8
0
  6
Continuous
 62
     7
370
    15
100
AcDbCircle
 10
9683.5085908892
 20
4387.8731441479
 30
0.0
 40
1.6439137620323
100
AcDbArc
 50
165.1398323245
 51
169.7090087409
  0
ARC
  5
2B9
330
1F
100
AcDbEntity
  8
0
  6
Continuous
 62
     7
370
    15
100
AcDbCircle
 10
9683.4306331315
 20
4387.8937769989
 30
0.0
 40
1.563271813502223
100
AcDbArc
 50
160.4129486484
 51
165.1379873147
  0
ARC
  5
2BA
330
1F
100
AcDbEntity
  8
0
  6
Continuous
 62
     7
370
    15
100
AcDbCircle
 10
9683.3657580278
 20
4387.9168151227
 30
0.0
 40
1.494427552718022
100
AcDbArc
 50
155.5417574065
 51
160.411274719
  0
ARC
  5
2BB
330
1F
100
AcDbEntity
  8
0
  6
Continuous
 62
     7
370
    15
100
AcDbCircle
 10
9683.315133782
 20
4387.9398006938
 30
0.0
 40
1.438829447430077
100
AcDbArc
 50
150.5459767666
 51
155.5402827097
  0
ARC
  5
2BC
330
1F
100
AcDbEntity
  8
0
  6
Continuous
 62
     7
370
    15
100
AcDbCircle
 10
9683.2787945799
 20
4387.9602604459
 30
0.0
 40
1.397126496581914
100
AcDbArc
 50
145.4508866955
 51
150.5437805676
  0
ARC
  5
2BD
330
1F
100
AcDbEntity
  8
0
  6
Continuous
 62
     7
370
    15
100
AcDbCircle
 10
9683.255838118
 20
4387.9759528948
 30
0.0
 40
1.369319247700354
100
AcDbArc
 50
140.2856286986
 51
145.4469551199
  0
ARC
  5
2BE
330
1F
100
AcDbEntity
  8
0
  6
Continuous
 62
     7
370
    15
100
AcDbCircle
 10
9683.2450035262
 20
4387.9848172028
 30
0.0
 40
1.355320912554677
100
AcDbArc
 50
135.0842512331
 51
140.2812276903
  0
ARC
  5
2BF
330
1F
100
AcDbEntity
  8
0
  6
Continuous
 62
     7
370
    15
100
AcDbCircle
 10
9683.2451103113
 20
4387.9845893462
 30
0.0
 40
1.355557416607813
100
AcDbArc
 50
129.8840086116
 51
135.0806180037
  0
ARC
  5
2C0
330
1F
100
AcDbEntity
  8
0
  6
Continuous
 62
     7
370
    15
100
AcDbCircle
 10
9690.813424926
 20
4378.9283665528
 30
0.0
 40
13.15786894359855
100
AcDbArc
 50
127.1465912943
 51
129.8854478106
  0
ARC
  5
2C1
330
1F
100
AcDbEntity
  8
0
  6
Continuous
 62
     7
370
    15
100
AcDbCircle
 10
9690.8816611016
 20
4378.8381708602
 30
0.0
 40
13.27096816150697
100
AcDbArc
 50
124.4208448274
 51
127.1462689834
  0
ARC
  5
2C2
330
1F
100
AcDbEntity
  8
0
  6
Continuous
 62
     7
370
    15
100
AcDbCircle
 10
9690.9678989472
 20
4378.7121987765
 30
0.0
 40
13.42363095029163
100
AcDbArc
 50
121.7158766887
 51
124.4205477529
  0
ARC
  5
2C3
330
1F
100
AcDbEntity
  8
0
  6
Continuous
 62
     7
370
    15
100
AcDbCircle
 10
9691.0679288296
 20
4378.5501376394
 30
0.0
 40
13.61407721237933
100
AcDbArc
 50
119.0360892712
 51
121.7154357536
  0
ARC
  5
2C4
330
1F
100
AcDbEntity
  8
0
  6
Continuous
 62
     7
370
    15
100
AcDbCircle
 10
9685.1621053717
 20
4389.1882224087
 30
0.0
 40
1.44659605419157
100
AcDbArc
 50
114.3669765957
 51
119.0265940175
  0
LINE
  5
2C5
330
1F
100
AcDbEntity
  8
0
  6
Continuous
 62
     7
370
    15
100
AcDbLine
 10
11090.7209251417
 20
5755.3020244328
 30
0.0
 11
9690.6347583515
 21
4388.77500402
 31
0.0
  0
ARC
  5
2C6
330
1F
100
AcDbEntity
  8
0
  6
Continuous
 62
     7
370
    15
100
AcDbCircle
 10
11068.5209737189
 20
5735.0972878733
 30
0.0
 40
30.01781508726304
100
AcDbArc
 50
40.7245452351
 51
42.3061199829
  0
LINE
  5
2C7
330
1F
100
AcDbEntity
  8
0
  6
Continuous
 62
     7
370
    15
100
AcDbLine
 10
11091.2701222953
 20
5754.6816046003
 30
0.0
 11
9691.1839555051
 21
4388.1545841875
 31
0.0
  0
ARC
  5
2C8
330
1F
100
AcDbEntity
  8
0
  6
Continuous
 62
     7
370
    15
100
AcDbCircle
 10
11068.6316409195
 20
5735.1924452192
 30
0.0
 40
29.87186255299372
100
AcDbArc
 50
39.1379748091
 51
40.7247109144
  0
LINE
  5
2C9
330
1F
100
AcDbEntity
  8
0
  6
Continuous
 62
     7
370
    15
100
AcDbLine
 10
11091.8011009146
 20
5754.0472667755
 30
0.0
 11
9691.7149341244
 21
4387.5202463627
 31
0.0
  0
ARC
  5
2CA
330
1F
100
AcDbEntity
  8
0
  6
Continuous
 62
     7
370
    15
100
AcDbCircle
 10
11068.7817276791
 20
5735.3144813781
 30
0.0
 40
29.67842301913548
100
AcDbArc
 50
37.5445217069
 51
39.1381265015
  0
LINE
  5
2CB
330
1F
100
AcDbEntity
  8
0
  6
Continuous
 62
     7
370
    15
100
AcDbLine
 10
11092.3131575782
 20
5753.3998511505
 30
0.0
 11
9692.226990788
 21
4386.8728307377
 31
0.0
  0
ARC
  5
2CC
330
1F
100
AcDbEntity
  8
0
  6
Continuous
 62
     7
370
    15
100
AcDbCircle
 10
11068.9747518022
 20
5735.4627306628
 30
0.0
 40
29.43503822925071
100
AcDbArc
 50
35.9435222178
 51
37.5446787869
  0
LINE
  5
2CD
330
1F
100
AcDbEntity
  8
0
  6
Continuous
 62
     7
370
    15
100
AcDbLine
 10
11092.8052408603
 20
5752.7407301653
 30
0.0
 11
9692.7190740701
 21
4386.2137097525
 31
0.0
  0
LINE
  5
2CE
330
1F
100
AcDbEntity
  8
0
  6
Continuous
 62
     7
370
    15
100
AcDbLine
 10
11090.6158501149
 20
5755.4119785608
 30
0.0
 11
9690.5296833247
 21
4388.884958148
 31
0.0
  0
ARC
  5
2CF
330
1F
100
AcDbEntity
  8
0
  6
Continuous
 62
     7
370
    15
100
AcDbCircle
 10
11088.4088434311
 20
5753.1977222459
 30
0.0
 40
3.126309250617329
100
AcDbArc
 50
42.3063669221
 51
45.0939489227
  0
LINE
  5
2D0
330
1F
100
AcDbEntity
  8
0
  6
Continuous
 62
     7
370
    15
100
AcDbLine
 10
11090.5055445233
 20
5755.5167052097
 30
0.0
 11
9690.4193777331
 21
4388.9896847969
 31
0.0
  0
ARC
  5
2D1
330
1F
100
AcDbEntity
  8
0
  6
Continuous
 62
     7
370
    15
100
AcDbCircle
 10
11088.4083346457
 20
5753.1973196849
 30
0.0
 40
3.126953546735263
100
AcDbArc
 50
45.0925532717
 51
47.8798212672
  0
LINE
  5
2D2
330
1F
100
AcDbEntity
  8
0
  6
Continuous
 62
     7
370
    15
100
AcDbLine
 10
11090.390464273
 20
5755.6157715322
 30
0.0
 11
9690.3042974828
 21
4389.0887511194
 31
0.0
  0
ARC
  5
2D3
330
1F
100
AcDbEntity
  8
0
  6
Continuous
 62
     7
370
    15
100
AcDbCircle
 10
11088.4183054944
 20
5753.2084415738
 30
0.0
 40
3.112016673595558
100
AcDbArc
 50
47.8786513836
 51
50.6746107934
  0
LINE
  5
2D4
330
1F
100
AcDbEntity
  8
0
  6
Continuous
 62
     7
370
    15
100
AcDbLine
 10
11090.2710848324
 20
5755.708767704
 30
0.0
 11
9690.1849180423
 21
4389.1817472912
 31
0.0
  0
ARC
  5
2D5
330
1F
100
AcDbEntity
  8
0
  6
Continuous
 62
     7
370
    15
100
AcDbCircle
 10
11088.4382312951
 20
5753.2328066518
 30
0.0
 40
3.080541384458578
100
AcDbArc
 50
50.6741098036
 51
53.4889550634
  0
LINE
  5
2D6
330
1F
100
AcDbEntity
  8
0
  6
Continuous
 62
     7
370
    15
100
AcDbLine
 10
11090.1478995851
 20
5755.7953093672
 30
0.0
 11
9690.0617327949
 21
4389.2682889543
 31
0.0
  0
ARC
  5
2D7
330
1F
100
AcDbEntity
  8
0
  6
Continuous
 62
     7
370
    15
100
AcDbCircle
 10
11088.4667310215
 20
5753.2713551277
 30
0.0
 40
3.032601645820498
100
AcDbArc
 50
53.4884061636
 51
56.3330033133
  0
LINE
  5
2D8
330
1F
100
AcDbEntity
  8
0
  6
Continuous
 62
     7
370
    15
100
AcDbLine
 10
11090.0214175643
 20
5755.8750394434
 30
0.0
 11
9689.9352507741
 21
4389.3480190306
 31
0.0
  0
ARC
  5
2D9
330
1F
100
AcDbEntity
  8
0
  6
Continuous
 62
     7
370
    15
100
AcDbCircle
 10
11088.5014737977
 20
5753.3236452639
 30
0.0
 40
2.969821764449044
100
AcDbArc
 50
56.3316078251
 51
59.2164459176
  0
LINE
  5
2DA
330
1F
100
AcDbEntity
  8
0
  6
Continuous
 62
     7
370
    15
100
AcDbLine
 10
11089.8921616
 20
5755.9476282384
 30
0.0
 11
9689.8059948098
 21
4389.4206078255
 31
0.0
  0
ARC
  5
2DB
330
1F
100
AcDbEntity
  8
0
  6
Continuous
 62
     7
370
    15
100
AcDbCircle
 10
11088.5398482555
 20
5753.3882430861
 30
0.0
 40
2.894685430138688
100
AcDbArc
 50
59.2146018261
 51
62.1491780715
  0
LINE
  5
2DC
330
1F
100
AcDbEntity
  8
0
  6
Continuous
 62
     7
370
    15
100
AcDbLine
 10
11089.0747165343
 20
5756.330458
 30
0.0
 11
9688.9885497441
 21
4389.8034375872
 31
0.0
  0
LINE
  5
2DD
330
1F
100
AcDbEntity
  8
0
  6
Continuous
 62
     7
370
    15
100
AcDbLine
 10
11089.0747165343
 20
5756.330458
 30
0.0
 11
11089.760665436
 21
5756.0127762211
 31
0.0
  0
LINE
  5
2DE
330
1F
100
AcDbEntity
  8
0
  6
Continuous
 62
     7
370
    15
100
AcDbLine
 10
11089.760665436
 20
5756.0127762211
 30
0.0
 11
9689.6744986458
 21
4389.4857558082
 31
0.0
  0
ARC
  5
2DF
330
1F
100
AcDbEntity
  8
0
  6
Continuous
 62
     7
370
    15
100
AcDbCircle
 10
11088.5798669351
 20
5753.4641443696
 30
0.0
 40
2.808880455658039
100
AcDbArc
 50
62.147634101
 51
65.1413891897
  0
ARC
  5
2E0
330
1F
100
AcDbEntity
  8
0
  6
Continuous
 62
     7
370
    15
100
AcDbCircle
 10
11090.3691703281
 20
5750.9742198704
 30
0.0
 40
3.009152415550842
100
AcDbArc
 50
32.8941648261
 51
35.9476484484
  0
LINE
  5
2E1
330
1F
100
AcDbEntity
  8
0
  6
Continuous
 62
     7
370
    15
100
AcDbLine
 10
11092.8958809203
 20
5752.6084572592
 30
0.0
 11
9692.8097141301
 21
4386.0814368464
 31
0.0
  0
ARC
  5
2E2
330
1F
100
AcDbEntity
  8
0
  6
Continuous
 62
     7
370
    15
100
AcDbCircle
 10
11090.4295969419
 20
5751.0132323349
 30
0.0
 40
2.937226450447351
100
AcDbArc
 50
29.7923396118
 51
32.8953201607
  0
LINE
  5
2E3
330
1F
100
AcDbEntity
  8
0
  6
Continuous
 62
     7
370
    15
100
AcDbLine
 10
11092.9786157253
 20
5752.4726166102
 30
0.0
 11
9692.8924489351
 21
4385.9455961974
 31
0.0
  0
ARC
  5
2E4
330
1F
100
AcDbEntity
  8
0
  6
Continuous
 62
     7
370
    15
100
AcDbCircle
 10
11090.5046998122
 20
5751.0561860376
 30
0.0
 40
2.850707896707162
100
AcDbArc
 50
26.6277048555
 51
29.7931207351
  0
LINE
  5
2E5
330
1F
100
AcDbEntity
  8
0
  6
Continuous
 62
     7
370
    15
100
AcDbLine
 10
11093.0530548517
 20
5752.3338487885
 30
0.0
 11
9692.9668880615
 21
4385.8068283757
 31
0.0
  0
LINE
  5
2E6
330
1F
100
AcDbEntity
  8
0
  6
Continuous
 62
     7
370
    15
100
AcDbLine
 10
11088.1532344312
 20
5756.8038125787
 30
0.0
 11
9688.067067641
 21
4390.2767921659
 31
0.0
  0
LINE
  5
2E7
330
1F
100
AcDbEntity
  8
0
  6
Continuous
 62
     7
370
    15
100
AcDbLine
 10
11088.1532344312
 20
5756.8038125787
 30
0.0
 11
11088.9656902184
 21
5756.383863965
 31
0.0
  0
LINE
  5
2E8
330
1F
100
AcDbEntity
  8
0
  6
Continuous
 62
     7
370
    15
100
AcDbLine
 10
11088.9656902184
 20
5756.383863965
 30
0.0
 11
9688.8795234283
 21
4389.8568435522
 31
0.0
  0
ARC
  5
2E9
330
1F
100
AcDbEntity
  8
0
  6
Continuous
 62
     7
370
    15
100
AcDbCircle
 10
11090.5934444004
 20
5751.1006297867
 30
0.0
 40
2.751456464889123
100
AcDbArc
 50
23.3873543621
 51
26.6286340439
  0
LINE
  5
2EA
330
1F
100
AcDbEntity
  8
0
  6
Continuous
 62
     7
370
    15
100
AcDbLine
 10
11093.1188474123
 20
5752.1928075679
 30
0.0
 11
9693.0326806222
 21
4385.665787155
 31
0.0
  0
ARC
  5
2EB
330
1F
100
AcDbEntity
  8
0
  6
Continuous
 62
     7
370
    15
100
AcDbCircle
 10
11090.6936531438
 20
5751.1438782526
 30
0.0
 40
2.642313370602137
100
AcDbArc
 50
20.0589672955
 51
23.3891351063
  0
LINE
  5
2EC
330
1F
100
AcDbEntity
  8
0
  6
Continuous
 62
     7
370
    15
100
AcDbLine
 10
11093.175684116
 20
5752.0501575702
 30
0.0
 11
9693.0895173258
 21
4385.5231371574
 31
0.0
  0
LINE
  5
2ED
330
1F
100
AcDbEntity
  8
0
  6
Continuous
 62
     7
370
    15
100
AcDbLine
 10
11089.0200385892
 20
5756.356509252
 30
0.0
 11
9688.933871799
 21
4389.8294888392
 31
0.0
  0
ARC
  5
2EE
330
1F
100
AcDbEntity
  8
0
  6
Continuous
 62
     7
370
    15
100
AcDbCircle
 10
11090.2452055291
 20
5758.8575574916
 30
0.0
 40
2.785009214965851
100
AcDbArc
 50
243.9015509784
 51
245.1476130181
  0
ARC
  5
2EF
330
1F
100
AcDbEntity
  8
0
  6
Continuous
 62
     7
370
    15
100
AcDbCircle
 10
11090.2607040127
 20
5758.8891315954
 30
0.0
 40
2.820182020237734
100
AcDbArc
 50
242.6648183626
 51
243.9009753615
  0
ARC
  5
2F0
330
1F
100
AcDbEntity
  8
0
  6
Continuous
 62
     7
370
    15
100
AcDbCircle
 10
11090.8021916328
 20
5751.1834315464
 30
0.0
 40
2.526792545506934
100
AcDbArc
 50
16.6299057145
 51
20.0606294464
  0
LINE
  5
2F1
330
1F
100
AcDbEntity
  8
0
  6
Continuous
 62
     7
370
    15
100
AcDbLine
 10
11093.2232968553
 20
5751.9065705855
 30
0.0
 11
9693.1371300651
 21
4385.3795501727
 31
0.0
  0
ARC
  5
2F2
330
1F
100
AcDbEntity
  8
0
  6
Continuous
 62
     7
370
    15
100
AcDbCircle
 10
11090.9175928303
 20
5751.2178539322
 30
0.0
 40
2.406366904554773
100
AcDbArc
 50
13.0868816422
 51
16.6309506647
  0
LINE
  5
2F3
330
1F
100
AcDbEntity
  8
0
  6
Continuous
 62
     7
370
    15
100
AcDbLine
 10
11093.2614611778
 20
5751.7627235029
 30
0.0
 11
9693.1752943876
 21
4385.2357030901
 31
0.0
  0
ARC
  5
2F4
330
1F
100
AcDbEntity
  8
0
  6
Continuous
 62
     7
370
    15
100
AcDbCircle
 10
11091.0374689921
 20
5751.2456962574
 30
0.0
 40
2.283299895891308
100
AcDbArc
 50
9.4171915313
 51
13.0874877966
  0
LINE
  5
2F5
330
1F
100
AcDbEntity
  8
0
  6
Continuous
 62
     7
370
    15
100
AcDbLine
 10
11093.2899971097
 20
5751.6192942952
 30
0.0
 11
9693.2038303195
 21
4385.0922738824
 31
0.0
  0
ARC
  5
2F6
330
1F
100
AcDbEntity
  8
0
  6
Continuous
 62
     7
370
    15
100
AcDbCircle
 10
11108.2071207596
 20
5754.0898538946
 30
0.0
 40
15.12032548327004
100
AcDbArc
 50
189.4039096343
 51
191.1350124842
  0
LINE
  5
2F7
330
1F
100
AcDbEntity
  8
0
  6
Continuous
 62
     7
370
    15
100
AcDbLine
 10
11093.3714379157
 20
5751.1697927179
 30
0.0
 11
9693.2852711255
 21
4384.6427723051
 31
0.0
  0
LINE
  5
2F8
330
1F
100
AcDbEntity
  8
0
  6
Continuous
 62
     7
370
    15
100
AcDbLine
 10
11088.0251221446
 20
5756.8659697086
 30
0.0
 11
9687.9389553544
 21
4390.3389492958
 31
0.0
  0
ARC
  5
2F9
330
1F
100
AcDbEntity
  8
0
  6
Continuous
 62
     7
370
    15
100
AcDbCircle
 10
11086.8698720922
 20
5754.3217747073
 30
0.0
 40
2.794195928766154
100
AcDbArc
 50
62.6583265717
 51
65.578487467
  0
LINE
  5
2FA
330
1F
100
AcDbEntity
  8
0
  6
Continuous
 62
     7
370
    15
100
AcDbLine
 10
11087.8954814195
 20
5756.920807913
 30
0.0
 11
9687.8093146293
 21
4390.3937875002
 31
0.0
  0
ARC
  5
2FB
330
1F
100
AcDbEntity
  8
0
  6
Continuous
 62
     7
370
    15
100
AcDbCircle
 10
11086.9089805282
 20
5754.4080038277
 30
0.0
 40
2.699512618880532
100
AcDbArc
 50
65.577600958
 51
68.5655416591
  0
LINE
  5
2FC
330
1F
100
AcDbEntity
  8
0
  6
Continuous
 62
     7
370
    15
100
AcDbLine
 10
11087.7648183934
 20
5756.9681125986
 30
0.0
 11
9687.6786516032
 21
4390.4410921858
 31
0.0
  0
ARC
  5
2FD
330
1F
100
AcDbEntity
  8
0
  6
Continuous
 62
     7
370
    15
100
AcDbCircle
 10
11086.9464015284
 20
5754.5034074132
 30
0.0
 40
2.597032501925497
100
AcDbArc
 50
68.5648545071
 51
71.6310123027
  0
ARC
  5
2FE
330
1F
100
AcDbEntity
  8
0
  6
Continuous
 62
     7
370
    15
100
AcDbCircle
 10
11108.5870108295
 20
5754.1646228396
 30
0.0
 40
15.50750355637797
100
AcDbArc
 50
191.134999316
 51
192.8371678593
  0
LINE
  5
2FF
330
1F
100
AcDbEntity
  8
0
  6
Continuous
 62
     7
370
    15
100
AcDbLine
 10
11093.4671106517
 20
5750.7191496984
 30
0.0
 11
9693.3809438616
 21
4384.1921292856
 31
0.0
  0
LINE
  5
300
330
1F
100
AcDbEntity
  8
0
  6
Continuous
 62
     7
370
    15
100
AcDbLine
 10
11087.5024680455
 20
5757.0394138017
 30
0.0
 11
9687.4163012553
 21
4390.5123933889
 31
0.0
  0
ARC
  5
301
330
1F
100
AcDbEntity
  8
0
  6
Continuous
 62
     7
370
    15
100
AcDbCircle
 10
11086.9963191615
 20
5754.6587510386
 30
0.0
 40
2.4338738431964
100
AcDbArc
 50
71.5938149894
 51
77.9971586926
  0
LINE
  5
302
330
1F
100
AcDbEntity
  8
0
  6
Continuous
 62
     7
370
    15
100
AcDbLine
 10
11087.3718050195
 20
5757.0631319375
 30
0.0
 11
9687.2856382293
 21
4390.5361115247
 31
0.0
  0
ARC
  5
303
330
1F
100
AcDbEntity
  8
0
  6
Continuous
 62
     7
370
    15
100
AcDbCircle
 10
11087.0324315303
 20
5754.8217561518
 30
0.0
 40
2.266922975722468
100
AcDbArc
 50
78.0331569114
 51
81.390071974
  0
LINE
  5
304
330
1F
100
AcDbEntity
  8
0
  6
Continuous
 62
     7
370
    15
100
AcDbLine
 10
11087.2421642943
 20
5757.0787608755
 30
0.0
 11
9687.1559975042
 21
4390.5517404627
 31
0.0
  0
ARC
  5
305
330
1F
100
AcDbEntity
  8
0
  6
Continuous
 62
     7
370
    15
100
AcDbCircle
 10
11087.0491534453
 20
5754.9322582177
 30
0.0
 40
2.155162835603892
100
AcDbArc
 50
81.389821281
 51
84.8618530029
  0
ARC
  5
306
330
1F
100
AcDbEntity
  8
0
  6
Continuous
 62
     7
370
    15
100
AcDbCircle
 10
11108.9632839767
 20
5754.2503321338
 30
0.0
 40
15.8934148976996
100
AcDbArc
 50
192.8370462666
 51
194.5115806392
  0
LINE
  5
307
330
1F
100
AcDbEntity
  8
0
  6
Continuous
 62
     7
370
    15
100
AcDbLine
 10
11093.5769164764
 20
5750.267828869
 30
0.0
 11
9693.4907496862
 21
4383.7408084562
 31
0.0
  0
LINE
  5
308
330
1F
100
AcDbEntity
  8
0
  6
Continuous
 62
     7
370
    15
100
AcDbLine
 10
11087.1140520077
 20
5757.0862400944
 30
0.0
 11
9687.0278852176
 21
4390.5592196816
 31
0.0
  0
ARC
  5
309
330
1F
100
AcDbEntity
  8
0
  6
Continuous
 62
     7
370
    15
100
AcDbCircle
 10
11087.0589524046
 20
5755.0414698084
 30
0.0
 40
2.045512524728053
100
AcDbArc
 50
84.861261258
 51
88.4564471836
  0
LINE
  5
30A
330
1F
100
AcDbEntity
  8
0
  6
Continuous
 62
     7
370
    15
100
AcDbLine
 10
11086.3015962205
 20
5757.107907629
 30
0.0
 11
9686.2154294303
 21
4390.5808872162
 31
0.0
  0
LINE
  5
30B
330
1F
100
AcDbEntity
  8
0
  6
Continuous
 62
     7
370
    15
100
AcDbLine
 10
11087.1140520077
 20
5757.0862400944
 30
0.0
 11
11086.3015962205
 21
5757.107907629
 31
0.0
  0
ARC
  5
30C
330
1F
100
AcDbEntity
  8
0
  6
Continuous
 62
     7
370
    15
100
AcDbCircle
 10
11109.3362828869
 20
5754.346832615
 30
0.0
 40
16.27869470261935
100
AcDbArc
 50
194.5114306014
 51
196.1594211214
  0
LINE
  5
30D
330
1F
100
AcDbEntity
  8
0
  6
Continuous
 62
     7
370
    15
100
AcDbLine
 10
11093.7007425457
 20
5749.8162940754
 30
0.0
 11
9693.6145757555
 21
4383.2892736626
 31
0.0
  0
ARC
  5
30E
330
1F
100
AcDbEntity
  8
0
  6
Continuous
 62
     7
370
    15
100
AcDbCircle
 10
11091.4420946841
 20
5749.1602605323
 30
0.0
 40
2.351992808674975
100
AcDbArc
 50
10.3854479324
 51
16.1961560075
  0
LINE
  5
30F
330
1F
100
AcDbEntity
  8
0
  6
Continuous
 62
     7
370
    15
100
AcDbLine
 10
11093.7555554711
 20
5749.5842527012
 30
0.0
 11
9693.6693886809
 21
4383.0572322884
 31
0.0
  0
ARC
  5
310
330
1F
100
AcDbEntity
  8
0
  6
Continuous
 62
     7
370
    15
100
AcDbCircle
 10
11091.6374828072
 20
5749.1958984641
 30
0.0
 40
2.153381253467482
100
AcDbArc
 50
4.2268653979
 51
10.3899286184
  0
LINE
  5
311
330
1F
100
AcDbEntity
  8
0
  6
Continuous
 62
     7
370
    15
100
AcDbLine
 10
11093.7850069218
 20
5749.3546151941
 30
0.0
 11
9693.6988401316
 21
4382.8275947813
 31
0.0
  0
LINE
  5
312
330
1F
100
AcDbEntity
  8
0
  6
Continuous
 62
     7
370
    15
100
AcDbLine
 10
11086.2472478497
 20
5757.1100943613
 30
0.0
 11
9686.1610810596
 21
4390.5830739485
 31
0.0
  0
ARC
  5
313
330
1F
100
AcDbEntity
  8
0
  6
Continuous
 62
     7
370
    15
100
AcDbCircle
 10
11086.3554168424
 20
5759.1220210002
 30
0.0
 40
2.014832333298297
100
AcDbArc
 50
266.9225192198
 51
268.4693211044
  0
LINE
  5
314
330
1F
100
AcDbEntity
  8
0
  6
Continuous
 62
     7
370
    15
100
AcDbLine
 10
11086.1925699046
 20
5757.113763697
 30
0.0
 11
9686.1064031145
 21
4390.5867432842
 31
0.0
  0
ARC
  5
315
330
1F
100
AcDbEntity
  8
0
  6
Continuous
 62
     7
370
    15
100
AcDbCircle
 10
11086.3577933339
 20
5759.1665894091
 30
0.0
 40
2.059464052991489
100
AcDbArc
 50
265.3984194894
 51
266.9230659245
  0
ARC
  5
316
330
1F
100
AcDbEntity
  8
0
  6
Continuous
 62
     7
370
    15
100
AcDbCircle
 10
11091.8282388479
 20
5749.2098677596
 30
0.0
 40
1.962114449980793
100
AcDbArc
 50
357.6730132623
 51
4.2306186355
  0
LINE
  5
317
330
1F
100
AcDbEntity
  8
0
  6
Continuous
 62
     7
370
    15
100
AcDbLine
 10
11093.7887353028
 20
5749.1302011723
 30
0.0
 11
9693.7025685126
 21
4382.6031807595
 31
0.0
  0
LINE
  5
318
330
1F
100
AcDbEntity
  8
0
  6
Continuous
 62
     7
370
    15
100
AcDbLine
 10
11085.506621003
 20
5757.1689339457
 30
0.0
 11
9685.4204542128
 21
4390.6419135328
 31
0.0
  0
LINE
  5
319
330
1F
100
AcDbEntity
  8
0
  6
Continuous
 62
     7
370
    15
100
AcDbLine
 10
11086.1925699046
 20
5757.113763697
 30
0.0
 11
11085.506621003
 21
5757.1689339457
 31
0.0
  0
ARC
  5
31A
330
1F
100
AcDbEntity
  8
0
  6
Continuous
 62
     7
370
    15
100
AcDbCircle
 10
11092.00291034
 20
5749.2027221618
 30
0.0
 40
1.787296867258545
100
AcDbArc
 50
350.6960369833
 51
357.6745398542
  0
LINE
  5
31B
330
1F
100
AcDbEntity
  8
0
  6
Continuous
 62
     7
370
    15
100
AcDbLine
 10
11093.7666944881
 20
5748.913766161
 30
0.0
 11
9693.6805276979
 21
4382.3867457482
 31
0.0
  0
LINE
  5
31C
330
1F
100
AcDbEntity
  8
0
  6
Continuous
 62
     7
370
    15
100
AcDbLine
 10
11093.7666944881
 20
5748.913766161
 30
0.0
 11
11093.6216360447
 21
5748.0335083801
 31
0.0
  0
LINE
  5
31D
330
1F
100
AcDbEntity
  8
0
  6
Continuous
 62
     7
370
    15
100
AcDbLine
 10
11093.6216360447
 20
5748.0335083801
 30
0.0
 11
9693.5354692545
 21
4381.5064879673
 31
0.0
  0
LINE
  5
31E
330
1F
100
AcDbEntity
  8
0
  6
Continuous
 62
     7
370
    15
100
AcDbLine
 10
11085.3751248389
 20
5757.1752620416
 30
0.0
 11
9685.2889580487
 21
4390.6482416288
 31
0.0
  0
ARC
  5
31F
330
1F
100
AcDbEntity
  8
0
  6
Continuous
 62
     7
370
    15
100
AcDbCircle
 10
11085.343443233
 20
5755.1475347945
 30
0.0
 40
2.027974731862462
100
AcDbArc
 50
85.3847967368
 51
89.1048724007
  0
LINE
  5
320
330
1F
100
AcDbEntity
  8
0
  6
Continuous
 62
     7
370
    15
100
AcDbLine
 10
11085.2458688746
 20
5757.1729312496
 30
0.0
 11
9685.1597020845
 21
4390.6459108368
 31
0.0
  0
ARC
  5
321
330
1F
100
AcDbEntity
  8
0
  6
Continuous
 62
     7
370
    15
100
AcDbCircle
 10
11085.3451027513
 20
5755.2549986698
 30
0.0
 40
1.920498045529216
100
AcDbArc
 50
89.10429017
 51
92.9618438793
  0
LINE
  5
322
330
1F
100
AcDbEntity
  8
0
  6
Continuous
 62
     7
370
    15
100
AcDbLine
 10
11085.1193868538
 20
5757.1619513795
 30
0.0
 11
9685.0332200637
 21
4390.6349309667
 31
0.0
  0
ARC
  5
323
330
1F
100
AcDbEntity
  8
0
  6
Continuous
 62
     7
370
    15
100
AcDbCircle
 10
11085.3398527758
 20
5755.356297432
 30
0.0
 40
1.819063330630106
100
AcDbArc
 50
92.9615678527
 51
96.9612185435
  0
LINE
  5
324
330
1F
100
AcDbEntity
  8
0
  6
Continuous
 62
     7
370
    15
100
AcDbLine
 10
11084.9962016065
 20
5757.1423675386
 30
0.0
 11
9684.9100348163
 21
4390.6153471257
 31
0.0
  0
ARC
  5
325
330
1F
100
AcDbEntity
  8
0
  6
Continuous
 62
     7
370
    15
100
AcDbCircle
 10
11085.328419881
 20
5755.4498842093
 30
0.0
 40
1.724780798207407
100
AcDbArc
 50
96.9610148063
 51
101.1054192666
  0
LINE
  5
326
330
1F
100
AcDbEntity
  8
0
  6
Continuous
 62
     7
370
    15
100
AcDbLine
 10
11084.8768221659
 20
5757.1142609147
 30
0.0
 11
9684.7906553757
 21
4390.5872405019
 31
0.0
  0
ARC
  5
327
330
1F
100
AcDbEntity
  8
0
  6
Continuous
 62
     7
370
    15
100
AcDbCircle
 10
11085.3119955629
 20
5755.5334933235
 30
0.0
 40
1.639573744234949
100
AcDbArc
 50
101.1049855036
 51
105.391828612
  0
LINE
  5
328
330
1F
100
AcDbEntity
  8
0
  6
Continuous
 62
     7
370
    15
100
AcDbLine
 10
11084.7617419156
 20
5757.0777476837
 30
0.0
 11
9684.6755751254
 21
4390.5507272709
 31
0.0
  0
ARC
  5
329
330
1F
100
AcDbEntity
  8
0
  6
Continuous
 62
     7
370
    15
100
AcDbCircle
 10
11085.2920968351
 20
5755.605814487
 30
0.0
 40
1.56456501180466
100
AcDbArc
 50
105.392207926
 51
109.8146906471
  0
ARC
  5
32A
330
1F
100
AcDbEntity
  8
0
  6
Continuous
 62
     7
370
    15
100
AcDbCircle
 10
11092.0010120483
 20
5748.2993264523
 30
0.0
 40
1.642279326148486
100
AcDbArc
 50
344.0065483859
 51
350.6851707431
  0
LINE
  5
32B
330
1F
100
AcDbEntity
  8
0
  6
Continuous
 62
     7
370
    15
100
AcDbLine
 10
11093.5797239848
 20
5747.8468333508
 30
0.0
 11
9693.4935571946
 21
4381.319812938
 31
0.0
  0
LINE
  5
32C
330
1F
100
AcDbEntity
  8
0
  6
Continuous
 62
     7
370
    15
100
AcDbLine
 10
11084.651436324
 20
5757.0329784272
 30
0.0
 11
9684.5652695338
 21
4390.5059580144
 31
0.0
  0
ARC
  5
32D
330
1F
100
AcDbEntity
  8
0
  6
Continuous
 62
     7
370
    15
100
AcDbCircle
 10
11085.2702477063
 20
5755.6665820302
 30
0.0
 40
1.499988880162268
100
AcDbArc
 50
109.8163485471
 51
114.364744133
  0
LINE
  5
32E
330
1F
100
AcDbEntity
  8
0
  6
Continuous
 62
     7
370
    15
100
AcDbLine
 10
11084.5463612972
 20
5756.9801385809
 30
0.0
 11
9684.460194507
 21
4390.453118168
 31
0.0
  0
ARC
  5
32F
330
1F
100
AcDbEntity
  8
0
  6
Continuous
 62
     7
370
    15
100
AcDbCircle
 10
11085.2482721622
 20
5755.7152428208
 30
0.0
 40
1.446596054926288
100
AcDbArc
 50
114.366976596
 51
119.0265940155
  0
ARC
  5
330
330
1F
100
AcDbEntity
  8
0
  6
Continuous
 62
     7
370
    15
100
AcDbCircle
 10
11092.1098631596
 20
5748.2682247955
 30
0.0
 40
1.529072135351034
100
AcDbArc
 50
336.9987285455
 51
344.0030387632
  0
LINE
  5
331
330
1F
100
AcDbEntity
  8
0
  6
Continuous
 62
     7
370
    15
100
AcDbLine
 10
11093.5173682229
 20
5747.6707374803
 30
0.0
 11
9693.4312014327
 21
4381.1437170675
 31
0.0
  0
LINE
  5
332
330
1F
100
AcDbEntity
  8
0
  6
Continuous
 62
     7
370
    15
100
AcDbLine
 10
11083.9971637318
 20
5756.6582384981
 30
0.0
 11
9683.9109969416
 21
4390.1312180853
 31
0.0
  0
ARC
  5
333
330
1F
100
AcDbEntity
  8
0
  6
Continuous
 62
     7
370
    15
100
AcDbCircle
 10
11091.1540956221
 20
5745.0771580483
 30
0.0
 40
13.61407721682859
100
AcDbArc
 50
119.0360892717
 51
121.7154357532
  0
ARC
  5
334
330
1F
100
AcDbEntity
  8
0
  6
Continuous
 62
     7
370
    15
100
AcDbCircle
 10
11092.1897199479
 20
5748.2344926731
 30
0.0
 40
1.442383395443654
100
AcDbArc
 50
329.710097042
 51
336.9926161965
  0
LINE
  5
335
330
1F
100
AcDbEntity
  8
0
  6
Continuous
 62
     7
370
    15
100
AcDbLine
 10
11093.4351955785
 20
5747.5069898806
 30
0.0
 11
9693.3490287883
 21
4380.9799694678
 31
0.0
  0
ARC
  5
336
330
1F
100
AcDbEntity
  8
0
  6
Continuous
 62
     7
370
    15
100
AcDbCircle
 10
11092.2398250105
 20
5748.2054638089
 30
0.0
 40
1.384477021587117
100
AcDbArc
 50
322.2171873494
 51
329.7015804829
  0
LINE
  5
337
330
1F
100
AcDbEntity
  8
0
  6
Continuous
 62
     7
370
    15
100
AcDbLine
 10
11093.3340309657
 20
5747.357236274
 30
0.0
 11
9693.2478641755
 21
4380.8302158612
 31
0.0
  0
LINE
  5
338
330
1F
100
AcDbEntity
  8
0
  6
Continuous
 62
     7
370
    15
100
AcDbLine
 10
11093.3340309657
 20
5747.357236274
 30
0.0
 11
11092.1928626189
 21
5745.8860761734
 31
0.0
  0
LINE
  5
339
330
1F
100
AcDbEntity
  8
0
  6
Continuous
 62
     7
370
    15
100
AcDbLine
 10
11092.1928626189
 20
5745.8860761734
 30
0.0
 11
9692.1066958287
 21
4379.3590557605
 31
0.0
  0
LINE
  5
33A
330
1F
100
AcDbEntity
  8
0
  6
Continuous
 62
     7
370
    15
100
AcDbLine
 10
11083.4661855243
 20
5756.3125177838
 30
0.0
 11
9683.3800187341
 21
4389.785497371
 31
0.0
  0
ARC
  5
33B
330
1F
100
AcDbEntity
  8
0
  6
Continuous
 62
     7
370
    15
100
AcDbCircle
 10
11091.0540657382
 20
5745.239219188
 30
0.0
 40
13.42363095192206
100
AcDbArc
 50
121.7158766888
 51
124.4205477527
  0
LINE
  5
33C
330
1F
100
AcDbEntity
  8
0
  6
Continuous
 62
     7
370
    15
100
AcDbLine
 10
11082.9541288607
 20
5755.9434342171
 30
0.0
 11
9682.8679620705
 21
4389.4164138042
 31
0.0
  0
ARC
  5
33D
330
1F
100
AcDbEntity
  8
0
  6
Continuous
 62
     7
370
    15
100
AcDbCircle
 10
11090.9678278923
 20
5745.3651912724
 30
0.0
 40
13.27096816230979
100
AcDbArc
 50
124.4208448275
 51
127.1462689833
  0
LINE
  5
33E
330
1F
100
AcDbEntity
  8
0
  6
Continuous
 62
     7
370
    15
100
AcDbLine
 10
11082.4620455786
 20
5755.5517888154
 30
0.0
 11
9682.3758787885
 21
4389.0247684026
 31
0.0
  0
ARC
  5
33F
330
1F
100
AcDbEntity
  8
0
  6
Continuous
 62
     7
370
    15
100
AcDbCircle
 10
11090.8995917169
 20
5745.4553869647
 30
0.0
 40
13.15786894469446
100
AcDbArc
 50
127.1465912944
 51
129.8854478105
  0
ARC
  5
340
330
1F
100
AcDbEntity
  8
0
  6
Continuous
 62
     7
370
    15
100
AcDbCircle
 10
11091.118784506
 20
5746.7191229351
 30
0.0
 40
1.359268442886754
100
AcDbArc
 50
317.5966523826
 51
322.2031182843
  0
LINE
  5
341
330
1F
100
AcDbEntity
  8
0
  6
Continuous
 62
     7
370
    15
100
AcDbLine
 10
11092.1224899936
 20
5745.8025063337
 30
0.0
 11
9692.0363232034
 21
4379.2754859208
 31
0.0
  0
ARC
  5
342
330
1F
100
AcDbEntity
  8
0
  6
Continuous
 62
     7
370
    15
100
AcDbCircle
 10
11091.1228982136
 20
5746.7154582999
 30
0.0
 40
1.353759586998601
100
AcDbArc
 50
312.9751041052
 51
317.5937728918
  0
LINE
  5
343
330
1F
100
AcDbEntity
  8
0
  6
Continuous
 62
     7
370
    15
100
AcDbLine
 10
11092.045729741
 20
5745.724980137
 30
0.0
 11
9691.9595629508
 21
4379.1979597241
 31
0.0
  0
LINE
  5
344
330
1F
100
AcDbEntity
  8
0
  6
Continuous
 62
     7
370
    15
100
AcDbLine
 10
11082.3714055186
 20
5755.4687839616
 30
0.0
 11
9682.2852387284
 21
4388.9417635488
 31
0.0
  0
ARC
  5
345
330
1F
100
AcDbEntity
  8
0
  6
Continuous
 62
     7
370
    15
100
AcDbCircle
 10
11083.3312771012
 20
5754.5116097594
 30
0.0
 40
1.355557416109544
100
AcDbArc
 50
129.8840086113
 51
135.0806180051
  0
ENDSEC
  0
SECTION
  2
OBJECTS
  0
DICTIONARY
  5
C
330
0
100
AcDbDictionary
281
     1
  3
ACAD_GROUP
350
D
  3
ACAD_LAYOUT
350
1A
  3
ACAD_MLINESTYLE
350
17
  3
ACAD_PLOTSETTINGS
350
19
  3
ACAD_PLOTSTYLENAME
350
E
  3
ACAD_SCALELIST
350
47
  0
DICTIONARY
  5
D
102
{ACAD_REACTORS
330
C
102
}
330
C
100
AcDbDictionary
281
     1
  0
DICTIONARY
  5
1A
102
{ACAD_REACTORS
330
C
102
}
330
C
100
AcDbDictionary
281
     1
  3
Layout1
350
1E
  3
Layout2
350
26
  3
Model
350
22
  0
DICTIONARY
  5
17
102
{ACAD_REACTORS
330
C
102
}
330
C
100
AcDbDictionary
281
     1
  3
Standard
350
18
  0
DICTIONARY
  5
19
102
{ACAD_REACTORS
330
C
102
}
330
C
100
AcDbDictionary
281
     1
  0
ACDBDICTIONARYWDFLT
  5
E
102
{ACAD_REACTORS
330
C
102
}
330
C
100
AcDbDictionary
281
     1
  3
Normal
350
F
100
AcDbDictionaryWithDefault
340
F
  0
DICTIONARY
  5
47
102
{ACAD_REACTORS
330
C
102
}
330
C
100
AcDbDictionary
281
     1
  3
A0
350
48
  3
A1
350
49
  3
A2
350
4A
  3
A3
350
4B
  3
A4
350
4C
  3
A5
350
4D
  3
A6
350
4E
  3
A7
350
4F
  3
A8
350
50
  3
A9
350
51
  3
B0
350
52
  3
B1
350
53
  3
B2
350
54
  3
B3
350
55
  3
B4
350
56
  3
B5
350
57
  3
B6
350
58
  3
B7
350
59
  3
B8
350
5A
  3
B9
350
5B
  3
C0
350
5C
  3
C1
350
5D
  3
C2
350
5E
  3
C3
350
5F
  3
C4
350
60
  3
C5
350
61
  3
C6
350
62
  3
C7
350
63
  3
C8
350
64
  3
C9
350
65
  3
D0
350
66
  3
D1
350
67
  3
D2
350
68
  0
LAYOUT
  5
1E
102
{ACAD_REACTORS
330
1A
102
}
330
1A
100
AcDbPlotSettings
  1

  2
none_device
  4

  6

 40
0.0
 41
0.0
 42
0.0
 43
0.0
 44
0.0
 45
0.0
 46
0.0
 47
0.0
 48
0.0
 49
0.0
140
0.0
141
0.0
142
1.0
143
1.0
 70
   688
 72
     1
 73
     0
 74
     5
  7

 75
    16
147
1.0
148
0.0
149
0.0
100
AcDbLayout
  1
Layout1
 70
     1
 71
     1
 10
0.0
 20
0.0
 11
420.0
 21
297.0
 12
0.0
 22
0.0
 32
0.0
 14
1.0000000000E+20
 24
1.0000000000E+20
 34
1.0000000000E+20
 15
-1.0000000000E+20
 25
-1.0000000000E+20
 35
-1.0000000000E+20
146
0.0
 13
0.0
 23
0.0
 33
0.0
 16
1.0
 26
0.0
 36
0.0
 17
0.0
 27
1.0
 37
0.0
 76
     0
330
1B
  0
LAYOUT
  5
26
102
{ACAD_REACTORS
330
1A
102
}
330
1A
100
AcDbPlotSettings
  1

  2
none_device
  4

  6

 40
0.0
 41
0.0
 42
0.0
 43
0.0
 44
0.0
 45
0.0
 46
0.0
 47
0.0
 48
0.0
 49
0.0
140
0.0
141
0.0
142
1.0
143
1.0
 70
   688
 72
     1
 73
     0
 74
     5
  7

 75
    16
147
1.0
148
0.0
149
0.0
100
AcDbLayout
  1
Layout2
 70
     1
 71
     2
 10
0.0
 20
0.0
 11
0.0
 21
0.0
 12
0.0
 22
0.0
 32
0.0
 14
0.0
 24
0.0
 34
0.0
 15
0.0
 25
0.0
 35
0.0
146
0.0
 13
0.0
 23
0.0
 33
0.0
 16
1.0
 26
0.0
 36
0.0
 17
0.0
 27
1.0
 37
0.0
 76
     0
330
23
  0
LAYOUT
  5
22
102
{ACAD_REACTORS
330
1A
102
}
330
1A
100
AcDbPlotSettings
  1

  2
none_device
  4
Letter_(8.50_x_11.00_Inches)
  6

 40
6.35
 41
6.35
 42
6.35000508
 43
6.35000508
 44
215.9
 45
279.4
 46
0.0
 47
0.0
 48
0.0
 49
0.0
140
0.0
141
0.0
142
1.0
143
1.0
 70
  1712
 72
     1
 73
     0
 74
     0
  7

 75
     0
147
1.0
148
0.0
149
0.0
100
AcDbLayout
  1
Model
 70
     1
 71
     0
 10
0.0
 20
0.0
 11
14850.0
 21
10500.0
 12
0.0
 22
0.0
 32
0.0
 14
0.0
 24
0.0
 34
0.0
 15
14850.0
 25
10500.0
 35
0.0
146
0.0
 13
0.0
 23
0.0
 33
0.0
 16
1.0
 26
0.0
 36
0.0
 17
0.0
 27
1.0
 37
0.0
 76
     0
330
1F
331
29
  0
MLINESTYLE
  5
18
102
{ACAD_REACTORS
330
17
102
}
330
17
100
AcDbMlineStyle
  2
Standard
 70
     0
  3

 62
   256
 51
90.0
 52
90.0
 71
     2
 49
0.5
 62
   256
  6
BYLAYER
 49
-0.5
 62
   256
  6
BYLAYER
  0
ACDBPLACEHOLDER
  5
F
102
{ACAD_REACTORS
330
E
102
}
330
E
  0
SCALE
  5
48
102
{ACAD_REACTORS
330
47
102
}
330
47
100
AcDbScale
 70
     0
300
1:1
140
1.0
141
1.0
290
     1
  0
SCALE
  5
49
102
{ACAD_REACTORS
330
47
102
}
330
47
100
AcDbScale
 70
     0
300
1:2
140
1.0
141
2.0
290
     0
  0
SCALE
  5
4A
102
{ACAD_REACTORS
330
47
102
}
330
47
100
AcDbScale
 70
     0
300
1:4
140
1.0
141
4.0
290
     0
  0
SCALE
  5
4B
102
{ACAD_REACTORS
330
47
102
}
330
47
100
AcDbScale
 70
     0
300
1:5
140
1.0
141
5.0
290
     0
  0
SCALE
  5
4C
102
{ACAD_REACTORS
330
47
102
}
330
47
100
AcDbScale
 70
     0
300
1:8
140
1.0
141
8.0
290
     0
  0
SCALE
  5
4D
102
{ACAD_REACTORS
330
47
102
}
330
47
100
AcDbScale
 70
     0
300
1:10
140
1.0
141
10.0
290
     0
  0
SCALE
  5
4E
102
{ACAD_REACTORS
330
47
102
}
330
47
100
AcDbScale
 70
     0
300
1:16
140
1.0
141
16.0
290
     0
  0
SCALE
  5
4F
102
{ACAD_REACTORS
330
47
102
}
330
47
100
AcDbScale
 70
     0
300
1:20
140
1.0
141
20.0
290
     0
  0
SCALE
  5
50
102
{ACAD_REACTORS
330
47
102
}
330
47
100
AcDbScale
 70
     0
300
1:30
140
1.0
141
30.0
290
     0
  0
SCALE
  5
51
102
{ACAD_REACTORS
330
47
102
}
330
47
100
AcDbScale
 70
     0
300
1:40
140
1.0
141
40.0
290
     0
  0
SCALE
  5
52
102
{ACAD_REACTORS
330
47
102
}
330
47
100
AcDbScale
 70
     0
300
1:50
140
1.0
141
50.0
290
     0
  0
SCALE
  5
53
102
{ACAD_REACTORS
330
47
102
}
330
47
100
AcDbScale
 70
     0
300
1:100
140
1.0
141
100.0
290
     0
  0
SCALE
  5
54
102
{ACAD_REACTORS
330
47
102
}
330
47
100
AcDbScale
 70
     0
300
2:1
140
2.0
141
1.0
290
     0
  0
SCALE
  5
55
102
{ACAD_REACTORS
330
47
102
}
330
47
100
AcDbScale
 70
     0
300
4:1
140
4.0
141
1.0
290
     0
  0
SCALE
  5
56
102
{ACAD_REACTORS
330
47
102
}
330
47
100
AcDbScale
 70
     0
300
8:1
140
8.0
141
1.0
290
     0
  0
SCALE
  5
57
102
{ACAD_REACTORS
330
47
102
}
330
47
100
AcDbScale
 70
     0
300
10:1
140
10.0
141
1.0
290
     0
  0
SCALE
  5
58
102
{ACAD_REACTORS
330
47
102
}
330
47
100
AcDbScale
 70
     0
300
100:1
140
100.0
141
1.0
290
     0
  0
SCALE
  5
59
102
{ACAD_REACTORS
330
47
102
}
330
47
100
AcDbScale
 70
     0
300
1/128" = 1'-0"
140
0.0078125
141
12.0
290
     0
  0
SCALE
  5
5A
102
{ACAD_REACTORS
330
47
102
}
330
47
100
AcDbScale
 70
     0
300
1/64" = 1'-0"
140
0.015625
141
12.0
290
     0
  0
SCALE
  5
5B
102
{ACAD_REACTORS
330
47
102
}
330
47
100
AcDbScale
 70
     0
300
1/32" = 1'-0"
140
0.03125
141
12.0
290
     0
  0
SCALE
  5
5C
102
{ACAD_REACTORS
330
47
102
}
330
47
100
AcDbScale
 70
     0
300
1/16" = 1'-0"
140
0.0625
141
12.0
290
     0
  0
SCALE
  5
5D
102
{ACAD_REACTORS
330
47
102
}
330
47
100
AcDbScale
 70
     0
300
3/32" = 1'-0"
140
0.09375
141
12.0
290
     0
  0
SCALE
  5
5E
102
{ACAD_REACTORS
330
47
102
}
330
47
100
AcDbScale
 70
     0
300
1/8" = 1'-0"
140
0.125
141
12.0
290
     0
  0
SCALE
  5
5F
102
{ACAD_REACTORS
330
47
102
}
330
47
100
AcDbScale
 70
     0
300
3/16" = 1'-0"
140
0.1875
141
12.0
290
     0
  0
SCALE
  5
60
102
{ACAD_REACTORS
330
47
102
}
330
47
100
AcDbScale
 70
     0
300
1/4" = 1'-0"
140
0.25
141
12.0
290
     0
  0
SCALE
  5
61
102
{ACAD_REACTORS
330
47
102
}
330
47
100
AcDbScale
 70
     0
300
3/8" = 1'-0"
140
0.375
141
12.0
290
     0
  0
SCALE
  5
62
102
{ACAD_REACTORS
330
47
102
}
330
47
100
AcDbScale
 70
     0
300
1/2" = 1'-0"
140
0.5
141
12.0
290
     0
  0
SCALE
  5
63
102
{ACAD_REACTORS
330
47
102
}
330
47
100
AcDbScale
 70
     0
300
3/4" = 1'-0"
140
0.75
141
12.0
290
     0
  0
SCALE
  5
64
102
{ACAD_REACTORS
330
47
102
}
330
47
100
AcDbScale
 70
     0
300
1" = 1'-0"
140
1.0
141
12.0
290
     0
  0
SCALE
  5
65
102
{ACAD_REACTORS
330
47
102
}
330
47
100
AcDbScale
 70
     0
300
1-1/2" = 1'-0"
140
1.5
141
12.0
290
     0
  0
SCALE
  5
66
102
{ACAD_REACTORS
330
47
102
}
330
47
100
AcDbScale
 70
     0
300
3" = 1'-0"
140
3.0
141
12.0
290
     0
  0
SCALE
  5
67
102
{ACAD_REACTORS
330
47
102
}
330
47
100
AcDbScale
 70
     0
300
6" = 1'-0"
140
6.0
141
12.0
290
     0
  0
SCALE
  5
68
102
{ACAD_REACTORS
330
47
102
}
330
47
100
AcDbScale
 70
     0
300
1'-0" = 1'-0"
140
12.0
141
12.0
290
     0
  0
ENDSEC
  0
EOF
