  0
SECTION
  2
HEADER
  9
$ACADVER
  1
AC1015
  9
$ACADMAINTVER
 70
     6
  9
$DWGCODEPAGE
  3
ANSI_1252
  9
$INSBASE
 10
0.0
 20
0.0
 30
0.0
  9
$EXTMIN
 10
0.0
 20
0.0
 30
0.0
  9
$EXTMAX
 10
297.0
 20
210.0
 30
0.0
  9
$LIMMIN
 10
0.0
 20
0.0
  9
$LIMMAX
 10
297.0
 20
210.0
  9
$ORTHOMODE
 70
     0
  9
$REGENMODE
 70
     1
  9
$FILLMODE
 70
     1
  9
$QTEXTMODE
 70
     0
  9
$MIRRTEXT
 70
     1
  9
$LTSCALE
 40
1.0
  9
$ATTMODE
 70
     1
  9
$TEXTSIZE
 40
3.5
  9
$TRACEWID
 40
1.0
  9
$TEXTSTYLE
  7
Standard
  9
$CLAYER
  8
0
  9
$CELTYPE
  6
ByLayer
  9
$CECOLOR
 62
   256
  9
$CELTSCALE
 40
1.0
  9
$DISPSILH
 70
     0
  9
$DIMSCALE
 40
1.0
  9
$DIMASZ
 40
3.302
  9
$DIMEXO
 40
1.0
  9
$DIMDLI
 40
3.75
  9
$DIMRND
 40
0.0
  9
$DIMDLE
 40
0.0
  9
$DIMEXE
 40
1.0
  9
$DIMTP
 40
0.0
  9
$DIMTM
 40
0.0
  9
$DIMTXT
 40
3.5
  9
$DIMCEN
 40
2.5
  9
$DIMTSZ
 40
0.0
  9
$DIMTOL
 70
     0
  9
$DIMLIM
 70
     0
  9
$DIMTIH
 70
     1
  9
$DIMTOH
 70
     1
  9
$DIMSE1
 70
     0
  9
$DIMSE2
 70
     0
  9
$DIMTAD
 70
     1
  9
$DIMZIN
 70
     0
  9
$DIMBLK
  1

  9
$DIMASO
 70
     1
  9
$DIMSHO
 70
     1
  9
$DIMPOST
  1

  9
$DIMAPOST
  1

  9
$DIMALT
 70
     0
  9
$DIMALTD
 70
     3
  9
$DIMALTF
 40
0.0393700787
  9
$DIMLFAC
 40
1.0
  9
$DIMTOFL
 70
     1
  9
$DIMTVP
 40
0.0
  9
$DIMTIX
 70
     0
  9
$DIMSOXD
 70
     0
  9
$DIMSAH
 70
     0
  9
$DIMBLK1
  1

  9
$DIMBLK2
  1

  9
$DIMSTYLE
  2
ISO-25
  9
$DIMCLRD
 70
     0
  9
$DIMCLRE
 70
     0
  9
$DIMCLRT
 70
     0
  9
$DIMTFAC
 40
1.0
  9
$DIMGAP
 40
1.524
  9
$DIMJUST
 70
     0
  9
$DIMSD1
 70
     0
  9
$DIMSD2
 70
     0
  9
$DIMTOLJ
 70
     0
  9
$DIMTZIN
 70
     0
  9
$DIMALTZ
 70
     0
  9
$DIMALTTZ
 70
     0
  9
$DIMUPT
 70
     0
  9
$DIMDEC
 70
     2
  9
$DIMTDEC
 70
     2
  9
$DIMALTU
 70
     2
  9
$DIMALTTD
 70
     3
  9
$DIMTXSTY
  7
Standard
  9
$DIMAUNIT
 70
     0
  9
$DIMADEC
 70
     2
  9
$DIMALTRND
 40
0.0
  9
$DIMAZIN
 70
     0
  9
$DIMDSEP
 70
    44
  9
$DIMATFIT
 70
     3
  9
$DIMFRAC
 70
     0
  9
$DIMLDRBLK
  1

  9
$DIMLUNIT
 70
     2
  9
$DIMLWD
 70
    -2
  9
$DIMLWE
 70
    -2
  9
$DIMTMOVE
 70
     0
  9
$LUNITS
 70
     2
  9
$LUPREC
 70
     2
  9
$SKETCHINC
 40
1.0
  9
$FILLETRAD
 40
10.0
  9
$AUNITS
 70
     0
  9
$AUPREC
 70
     2
  9
$MENU
  1
.
  9
$ELEVATION
 40
0.0
  9
$PELEVATION
 40
0.0
  9
$THICKNESS
 40
0.0
  9
$LIMCHECK
 70
     0
  9
$CHAMFERA
 40
0.0
  9
$CHAMFERB
 40
0.0
  9
$CHAMFERC
 40
0.0
  9
$CHAMFERD
 40
0.0
  9
$SKPOLY
 70
     0
  9
$TDCREATE
 40
2456926.589088009
  9
$TDUCREATE
 40
2456926.505754676
  9
$TDUPDATE
 40
2456926.589089502
  9
$TDUUPDATE
 40
2456926.505756169
  9
$TDINDWG
 40
0.0000000116
  9
$TDUSRTIMER
 40
0.0000000116
  9
$USRTIMER
 70
     1
  9
$ANGBASE
 50
0.0
  9
$ANGDIR
 70
     0
  9
$PDMODE
 70
     0
  9
$PDSIZE
 40
-1.0
  9
$PLINEWID
 40
0.0
  9
$SPLFRAME
 70
     0
  9
$SPLINETYPE
 70
     6
  9
$SPLINESEGS
 70
     8
  9
$HANDSEED
  5
190
  9
$SURFTAB1
 70
     6
  9
$SURFTAB2
 70
     6
  9
$SURFTYPE
 70
     6
  9
$SURFU
 70
     6
  9
$SURFV
 70
     6
  9
$UCSBASE
  2

  9
$UCSNAME
  2

  9
$UCSORG
 10
0.0
 20
0.0
 30
0.0
  9
$UCSXDIR
 10
1.0
 20
0.0
 30
0.0
  9
$UCSYDIR
 10
0.0
 20
1.0
 30
0.0
  9
$UCSORTHOREF
  2

  9
$UCSORTHOVIEW
 70
     0
  9
$UCSORGTOP
 10
0.0
 20
0.0
 30
0.0
  9
$UCSORGBOTTOM
 10
0.0
 20
0.0
 30
0.0
  9
$UCSORGLEFT
 10
0.0
 20
0.0
 30
0.0
  9
$UCSORGRIGHT
 10
0.0
 20
0.0
 30
0.0
  9
$UCSORGFRONT
 10
0.0
 20
0.0
 30
0.0
  9
$UCSORGBACK
 10
0.0
 20
0.0
 30
0.0
  9
$PUCSBASE
  2

  9
$PUCSNAME
  2

  9
$PUCSORG
 10
0.0
 20
0.0
 30
0.0
  9
$PUCSXDIR
 10
1.0
 20
0.0
 30
0.0
  9
$PUCSYDIR
 10
0.0
 20
1.0
 30
0.0
  9
$PUCSORTHOREF
  2

  9
$PUCSORTHOVIEW
 70
     0
  9
$PUCSORGTOP
 10
0.0
 20
0.0
 30
0.0
  9
$PUCSORGBOTTOM
 10
0.0
 20
0.0
 30
0.0
  9
$PUCSORGLEFT
 10
0.0
 20
0.0
 30
0.0
  9
$PUCSORGRIGHT
 10
0.0
 20
0.0
 30
0.0
  9
$PUCSORGFRONT
 10
0.0
 20
0.0
 30
0.0
  9
$PUCSORGBACK
 10
0.0
 20
0.0
 30
0.0
  9
$USERI1
 70
     0
  9
$USERI2
 70
     0
  9
$USERI3
 70
     0
  9
$USERI4
 70
     0
  9
$USERI5
 70
     0
  9
$USERR1
 40
0.0
  9
$USERR2
 40
0.0
  9
$USERR3
 40
0.0
  9
$USERR4
 40
0.0
  9
$USERR5
 40
0.0
  9
$WORLDVIEW
 70
     1
  9
$SHADEDGE
 70
     3
  9
$SHADEDIF
 70
    70
  9
$TILEMODE
 70
     1
  9
$MAXACTVP
 70
    64
  9
$PINSBASE
 10
0.0
 20
0.0
 30
0.0
  9
$PLIMCHECK
 70
     0
  9
$PEXTMIN
 10
1.0000000000E+20
 20
1.0000000000E+20
 30
1.0000000000E+20
  9
$PEXTMAX
 10
-1.0000000000E+20
 20
-1.0000000000E+20
 30
-1.0000000000E+20
  9
$PLIMMIN
 10
0.0
 20
0.0
  9
$PLIMMAX
 10
420.0
 20
297.0
  9
$UNITMODE
 70
     0
  9
$VISRETAIN
 70
     1
  9
$PLINEGEN
 70
     0
  9
$PSLTSCALE
 70
     1
  9
$TREEDEPTH
 70
  3020
  9
$CMLSTYLE
  2
Standard
  9
$CMLJUST
 70
     0
  9
$CMLSCALE
 40
20.0
  9
$PROXYGRAPHICS
 70
     1
  9
$MEASUREMENT
 70
     1
  9
$CELWEIGHT
370
    -1
  9
$ENDCAPS
280
     0
  9
$JOINSTYLE
280
     0
  9
$LWDISPLAY
290
     1
  9
$INSUNITS
 70
     4
  9
$HYPERLINKBASE
  1

  9
$STYLESHEET
  1

  9
$XEDIT
290
     1
  9
$CEPSNTYPE
380
     0
  9
$PSTYLEMODE
290
     1
  9
$FINGERPRINTGUID
  2
{78411744-FB40-4916-87A0-1650DFB3E0F0}
  9
$VERSIONGUID
  2
{FAEB1C32-E019-11D5-929B-00C0DF256EC4}
  9
$EXTNAMES
290
     1
  9
$PSVPSCALE
 40
0.0
  9
$OLESTARTUP
290
     0
  0
ENDSEC
  0
SECTION
  2
CLASSES
  0
CLASS
  1
ACDBDICTIONARYWDFLT
  2
AcDbDictionaryWithDefault
  3
ObjectDBX Classes
 90
        0
280
     0
281
     0
  0
CLASS
  1
VISUALSTYLE
  2
AcDbVisualStyle
  3
ObjectDBX Classes
 90
     4095
280
     0
281
     0
  0
CLASS
  1
MATERIAL
  2
AcDbMaterial
  3
ObjectDBX Classes
 90
     1153
280
     0
281
     0
  0
CLASS
  1
SCALE
  2
AcDbScale
  3
ObjectDBX Classes
 90
     1153
280
     0
281
     0
  0
CLASS
  1
SUN
  2
AcDbSun
  3
SCENEOE
 90
     1153
280
     0
281
     0
  0
CLASS
  1
ACDBPLACEHOLDER
  2
AcDbPlaceHolder
  3
ObjectDBX Classes
 90
        0
280
     0
281
     0
  0
CLASS
  1
LAYOUT
  2
AcDbLayout
  3
ObjectDBX Classes
 90
        0
280
     0
281
     0
  0
ENDSEC
  0
SECTION
  2
TABLES
  0
TABLE
  2
VPORT
  5
8
330
0
100
AcDbSymbolTable
 70
     1
  0
VPORT
  5
29
330
8
100
AcDbSymbolTableRecord
100
AcDbViewportTableRecord
  2
*Active
 70
     0
 10
0.0
 20
0.0
 11
1.0
 21
1.0
 12
148.5
 22
105.0
 13
0.0
 23
0.0
 14
10.0
 24
10.0
 15
10.0
 25
10.0
 16
0.0
 26
0.0
 36
1.0
 17
0.0
 27
0.0
 37
0.0
 40
210.0
 41
1.4142857143
 42
50.0
 43
0.0
 44
0.0
 50
0.0
 51
0.0
 71
     0
 72
  2000
 73
     1
 74
     3
 75
     0
 76
     0
 77
     0
 78
     0
281
     0
 65
     1
110
0.0
120
0.0
130
0.0
111
1.0
121
0.0
131
0.0
112
0.0
122
1.0
132
0.0
 79
     0
146
0.0
  0
ENDTAB
  0
TABLE
  2
LTYPE
  5
5
330
0
100
AcDbSymbolTable
 70
     6
  0
LTYPE
  5
14
330
5
100
AcDbSymbolTableRecord
100
AcDbLinetypeTableRecord
  2
ByBlock
 70
     0
  3

 72
    65
 73
     0
 40
0.0
  0
LTYPE
  5
15
330
5
100
AcDbSymbolTableRecord
100
AcDbLinetypeTableRecord
  2
ByLayer
 70
     0
  3

 72
    65
 73
     0
 40
0.0
  0
LTYPE
  5
16
330
5
100
AcDbSymbolTableRecord
100
AcDbLinetypeTableRecord
  2
Continuous
 70
     0
  3
Solid line
 72
    65
 73
     0
 40
0.0
  0
LTYPE
  5
6A
330
5
100
AcDbSymbolTableRecord
100
AcDbLinetypeTableRecord
  2
HIDDEN
 70
     0
  3
Hidden __ __ __ __ __ __ __ __ __ __ __ __ __ __
 72
    65
 73
     2
 40
1.905
 49
1.27
 74
     0
 49
-0.635
 74
     0
  0
LTYPE
  5
6B
330
5
100
AcDbSymbolTableRecord
100
AcDbLinetypeTableRecord
  2
PHANTOM
 70
     0
  3
Phantom ______  __  __  ______  __  __  ______
 72
    65
 73
     6
 40
12.7
 49
6.35
 74
     0
 49
-1.27
 74
     0
 49
1.27
 74
     0
 49
-1.27
 74
     0
 49
1.27
 74
     0
 49
-1.27
 74
     0
  0
LTYPE
  5
6C
330
5
100
AcDbSymbolTableRecord
100
AcDbLinetypeTableRecord
  2
CENTER
 70
     0
  3
Center ____ _ ____ _ ____ _ ____ _ ____ _ ____
 72
    65
 73
     4
 40
10.16
 49
6.35
 74
     0
 49
-1.27
 74
     0
 49
1.27
 74
     0
 49
-1.27
 74
     0
  0
LTYPE
  5
6D
330
5
100
AcDbSymbolTableRecord
100
AcDbLinetypeTableRecord
  2
CENTERX2
 70
     0
  3
Center (2x) ________  __  ________  __  _____
 72
    65
 73
     4
 40
20.32
 49
12.7
 74
     0
 49
-2.54
 74
     0
 49
2.54
 74
     0
 49
-2.54
 74
     0
  0
LTYPE
  5
6E
330
5
100
AcDbSymbolTableRecord
100
AcDbLinetypeTableRecord
  2
DOT2
 70
     0
  3
Dot (.5x) ........................................
 72
    65
 73
     2
 40
0.635
 49
0.0
 74
     0
 49
-0.635
 74
     0
  0
ENDTAB
  0
TABLE
  2
LAYER
  5
2
330
0
100
AcDbSymbolTable
 70
     2
  0
LAYER
  5
10
330
2
100
AcDbSymbolTableRecord
100
AcDbLayerTableRecord
  2
0
 70
     0
 62
     7
  6
Continuous
370
    -3
390
F
  0
LAYER
  5
6F
330
2
100
AcDbSymbolTableRecord
100
AcDbLayerTableRecord
  2
FORMAT
 70
     0
 62
     7
  6
Continuous
370
    -3
390
F
  0
ENDTAB
  0
TABLE
  2
STYLE
  5
3
330
0
100
AcDbSymbolTable
 70
     3
  0
STYLE
  5
11
330
3
100
AcDbSymbolTableRecord
100
AcDbTextStyleTableRecord
  2
Standard
 70
     0
 40
0.0
 41
1.0
 50
0.0
 71
     0
 42
3.5
  3
txt
  4

  0
STYLE
  5
8C
330
3
100
AcDbSymbolTableRecord
100
AcDbTextStyleTableRecord
  2
SLDTEXTSTYLE0
 70
     0
 40
0.0
 41
0.75
 50
0.0
 71
     0
 42
3.5
  3
TXT
  4

  0
STYLE
  5
94
330
3
100
AcDbSymbolTableRecord
100
AcDbTextStyleTableRecord
  2
SLDTEXTSTYLE1
 70
     0
 40
0.0
 41
0.6923076923
 50
0.0
 71
     0
 42
3.5
  3
TXT
  4

  0
ENDTAB
  0
TABLE
  2
VIEW
  5
6
330
0
100
AcDbSymbolTable
 70
     0
  0
ENDTAB
  0
TABLE
  2
UCS
  5
7
330
0
100
AcDbSymbolTable
 70
     0
  0
ENDTAB
  0
TABLE
  2
APPID
  5
9
330
0
100
AcDbSymbolTable
 70
     1
  0
APPID
  5
12
330
9
100
AcDbSymbolTableRecord
100
AcDbRegAppTableRecord
  2
ACAD
 70
     0
  0
ENDTAB
  0
TABLE
  2
DIMSTYLE
  5
A
330
0
100
AcDbSymbolTable
 70
     1
100
AcDbDimStyleTable
  0
DIMSTYLE
105
27
330
A
100
AcDbSymbolTableRecord
100
AcDbDimStyleTableRecord
  2
ISO-25
 70
     0
 41
2.5
 42
0.625
 43
3.75
 44
1.25
 73
     0
 74
     0
 77
     1
 78
     8
140
2.5
141
2.5
143
0.0393700787
147
0.625
171
     3
172
     1
178
     0
271
     2
272
     2
274
     3
278
    44
283
     0
284
     8
340
11
  0
ENDTAB
  0
TABLE
  2
BLOCK_RECORD
  5
1
330
0
100
AcDbSymbolTable
 70
     2
  0
BLOCK_RECORD
  5
1F
330
1
100
AcDbSymbolTableRecord
100
AcDbBlockTableRecord
  2
*Model_Space
340
22
  0
BLOCK_RECORD
  5
1B
330
1
100
AcDbSymbolTableRecord
100
AcDbBlockTableRecord
  2
*Paper_Space
340
1E
  0
BLOCK_RECORD
  5
23
330
1
100
AcDbSymbolTableRecord
100
AcDbBlockTableRecord
  2
*Paper_Space0
340
26
  0
BLOCK_RECORD
  5
184
330
1
100
AcDbSymbolTableRecord
100
AcDbBlockTableRecord
  2
SW_CENTERMARKSYMBOL_0
340
0
102
{BLKREFS
331
18F
102
}
  0
ENDTAB
  0
ENDSEC
  0
SECTION
  2
BLOCKS
  0
BLOCK
  5
20
330
1F
100
AcDbEntity
  8
0
100
AcDbBlockBegin
  2
*Model_Space
 70
     0
 10
0.0
 20
0.0
 30
0.0
  3
*Model_Space
  1
*Model_Space
  0
ENDBLK
  5
21
330
1F
100
AcDbEntity
  8
0
100
AcDbBlockEnd
  0
BLOCK
  5
1C
330
1B
100
AcDbEntity
 67
     1
  8
0
100
AcDbBlockBegin
  2
*Paper_Space
 70
     0
 10
0.0
 20
0.0
 30
0.0
  3
*Paper_Space
  1
*Paper_Space
  0
ENDBLK
  5
1D
330
1B
100
AcDbEntity
 67
     1
  8
0
100
AcDbBlockEnd
  0
BLOCK
  5
24
330
23
100
AcDbEntity
  8
0
100
AcDbBlockBegin
  2
*Paper_Space0
 70
     0
 10
0.0
 20
0.0
 30
0.0
  3
*Paper_Space0
  1
*Paper_Space0
  0
ENDBLK
  5
25
330
23
100
AcDbEntity
  8
0
100
AcDbBlockEnd
  0
BLOCK
  5
185
330
184
100
AcDbEntity
  8
0
100
AcDbBlockBegin
  2
SW_CENTERMARKSYMBOL_0
 70
     0
 10
0.0
 20
0.0
 30
0.0
  3
SW_CENTERMARKSYMBOL_0
  1
SW_CENTERMARKSYMBOL_0
  0
LINE
  5
187
330
184
100
AcDbEntity
  8
0
  6
Continuous
 62
     0
370
     0
100
AcDbLine
 10
0.0
 20
0.0
 30
0.0
 11
0.0
 21
2.5
 31
0.0
  0
LINE
  5
188
330
184
100
AcDbEntity
  8
0
  6
Continuous
 62
     0
370
     0
100
AcDbLine
 10
0.0
 20
0.0
 30
0.0
 11
-2.5
 21
0.0
 31
0.0
  0
LINE
  5
189
330
184
100
AcDbEntity
  8
0
  6
Continuous
 62
     0
370
     0
100
AcDbLine
 10
0.0
 20
0.0
 30
0.0
 11
0.0
 21
-2.5
 31
0.0
  0
LINE
  5
18A
330
184
100
AcDbEntity
  8
0
  6
Continuous
 62
     0
370
     0
100
AcDbLine
 10
0.0
 20
0.0
 30
0.0
 11
2.5
 21
0.0
 31
0.0
  0
LINE
  5
18B
330
184
100
AcDbEntity
  8
0
  6
Continuous
 62
     0
370
     0
100
AcDbLine
 10
0.0
 20
5.0
 30
0.0
 11
0.0
 21
19.35
 31
0.0
  0
LINE
  5
18C
330
184
100
AcDbEntity
  8
0
  6
Continuous
 62
     0
370
     0
100
AcDbLine
 10
-5.0
 20
0.0
 30
0.0
 11
-19.35
 21
0.0
 31
0.0
  0
LINE
  5
18D
330
184
100
AcDbEntity
  8
0
  6
Continuous
 62
     0
370
     0
100
AcDbLine
 10
0.0
 20
-5.0
 30
0.0
 11
0.0
 21
-19.35
 31
0.0
  0
LINE
  5
18E
330
184
100
AcDbEntity
  8
0
  6
Continuous
 62
     0
370
     0
100
AcDbLine
 10
5.0
 20
0.0
 30
0.0
 11
19.35
 21
0.0
 31
0.0
  0
ENDBLK
  5
186
330
184
100
AcDbEntity
  8
0
100
AcDbBlockEnd
  0
ENDSEC
  0
SECTION
  2
ENTITIES
  0
LINE
  5
70
330
1F
100
AcDbEntity
  8
0
  6
Continuous
 62
     7
370
     0
100
AcDbLine
 10
292.0
 20
205.0
 30
0.0
 11
292.0
 21
5.0
 31
0.0
  0
LINE
  5
71
330
1F
100
AcDbEntity
  8
0
  6
Continuous
 62
     7
370
     0
100
AcDbLine
 10
159.4
 20
34.75
 30
0.0
 11
174.13
 21
34.75
 31
0.0
  0
LINE
  5
72
330
1F
100
AcDbEntity
  8
0
  6
Continuous
 62
     7
370
     0
100
AcDbLine
 10
203.6
 20
34.75
 30
0.0
 11
292.0
 21
34.75
 31
0.0
  0
LINE
  5
73
330
1F
100
AcDbEntity
  8
0
  6
Continuous
 62
     7
370
     0
100
AcDbLine
 10
159.4
 20
9.25
 30
0.0
 11
292.0
 21
9.25
 31
0.0
  0
LINE
  5
74
330
1F
100
AcDbEntity
  8
0
  6
Continuous
 62
     7
370
     0
100
AcDbLine
 10
159.4
 20
34.75
 30
0.0
 11
159.4
 21
28.375
 31
0.0
  0
LINE
  5
75
330
1F
100
AcDbEntity
  8
0
  6
Continuous
 62
     7
370
     0
100
AcDbLine
 10
292.0
 20
22.0
 30
0.0
 11
279.0
 21
22.0
 31
0.0
  0
LINE
  5
76
330
1F
100
AcDbEntity
  8
0
  6
Continuous
 62
     7
370
     0
100
AcDbLine
 10
188.86
 20
22.0
 30
0.0
 11
203.6
 21
22.0
 31
0.0
  0
LINE
  5
77
330
1F
100
AcDbEntity
  8
0
  6
Continuous
 62
     7
370
     0
100
AcDbLine
 10
203.6
 20
34.75
 30
0.0
 11
203.6
 21
5.0
 31
0.0
  0
LINE
  5
78
330
1F
100
AcDbEntity
  8
0
  6
Continuous
 62
     7
370
     0
100
AcDbLine
 10
247.8
 20
5.0
 30
0.0
 11
247.8
 21
9.25
 31
0.0
  0
LINE
  5
79
330
1F
100
AcDbEntity
  8
0
  6
Continuous
 62
     7
370
     0
100
AcDbLine
 10
174.13
 20
34.75
 30
0.0
 11
188.86
 21
34.75
 31
0.0
  0
LINE
  5
7A
330
1F
100
AcDbEntity
  8
0
  6
Continuous
 62
     7
370
     0
100
AcDbLine
 10
279.0
 20
9.25
 30
0.0
 11
279.0
 21
15.4949693602
 31
0.0
  0
LINE
  5
7B
330
1F
100
AcDbEntity
  8
0
  6
Continuous
 62
     7
370
     0
100
AcDbLine
 10
188.86
 20
34.75
 30
0.0
 11
203.6
 21
34.75
 31
0.0
  0
LINE
  5
7C
330
1F
100
AcDbEntity
  8
0
  6
Continuous
 62
     7
370
     0
100
AcDbLine
 10
292.0
 20
15.4949693602
 30
0.0
 11
279.0
 21
15.4949693602
 31
0.0
  0
LINE
  5
7D
330
1F
100
AcDbEntity
  8
0
  6
Continuous
 62
     7
370
     0
100
AcDbLine
 10
203.6
 20
22.0
 30
0.0
 11
279.0
 21
22.0
 31
0.0
  0
LINE
  5
7E
330
1F
100
AcDbEntity
  8
0
  6
Continuous
 62
     7
370
     0
100
AcDbLine
 10
188.86
 20
34.75
 30
0.0
 11
188.86
 21
22.0
 31
0.0
  0
LINE
  5
7F
330
1F
100
AcDbEntity
  8
0
  6
Continuous
 62
     7
370
     0
100
AcDbLine
 10
188.86
 20
22.0
 30
0.0
 11
174.13
 21
22.0
 31
0.0
  0
LINE
  5
80
330
1F
100
AcDbEntity
  8
0
  6
Continuous
 62
     7
370
     0
100
AcDbLine
 10
292.0
 20
205.0
 30
0.0
 11
5.0
 21
205.0
 31
0.0
  0
LINE
  5
81
330
1F
100
AcDbEntity
  8
0
  6
Continuous
 62
     7
370
     0
100
AcDbLine
 10
5.0
 20
205.0
 30
0.0
 11
5.0
 21
5.0
 31
0.0
  0
LINE
  5
82
330
1F
100
AcDbEntity
  8
0
  6
Continuous
 62
     7
370
     0
100
AcDbLine
 10
5.0
 20
5.0
 30
0.0
 11
292.0
 21
5.0
 31
0.0
  0
LINE
  5
83
330
1F
100
AcDbEntity
  8
0
  6
Continuous
 62
     7
370
     0
100
AcDbLine
 10
174.13
 20
22.0
 30
0.0
 11
174.13
 21
34.75
 31
0.0
  0
LINE
  5
84
330
1F
100
AcDbEntity
  8
0
  6
Continuous
 62
     7
370
     0
100
AcDbLine
 10
174.13
 20
22.0
 30
0.0
 11
159.4
 21
22.0
 31
0.0
  0
LINE
  5
85
330
1F
100
AcDbEntity
  8
0
  6
Continuous
 62
     7
370
     0
100
AcDbLine
 10
279.0
 20
15.4949693602
 30
0.0
 11
279.0
 21
22.0
 31
0.0
  0
LINE
  5
86
330
1F
100
AcDbEntity
  8
0
  6
Continuous
 62
     7
370
     0
100
AcDbLine
 10
159.4
 20
28.375
 30
0.0
 11
174.13
 21
28.375
 31
0.0
  0
LINE
  5
87
330
1F
100
AcDbEntity
  8
0
  6
Continuous
 62
     7
370
     0
100
AcDbLine
 10
174.13
 20
28.375
 30
0.0
 11
188.86
 21
28.375
 31
0.0
  0
LINE
  5
88
330
1F
100
AcDbEntity
  8
0
  6
Continuous
 62
     7
370
     0
100
AcDbLine
 10
188.86
 20
28.375
 30
0.0
 11
203.6
 21
28.375
 31
0.0
  0
LINE
  5
89
330
1F
100
AcDbEntity
  8
0
  6
Continuous
 62
     7
370
     0
100
AcDbLine
 10
159.4
 20
22.0
 30
0.0
 11
159.4
 21
28.375
 31
0.0
  0
LINE
  5
8A
330
1F
100
AcDbEntity
  8
0
  6
Continuous
 62
     7
370
     0
100
AcDbLine
 10
159.4
 20
22.0
 30
0.0
 11
159.4
 21
9.25
 31
0.0
  0
LINE
  5
8B
330
1F
100
AcDbEntity
  8
0
  6
Continuous
 62
     7
370
     0
100
AcDbLine
 10
159.4
 20
5.0
 30
0.0
 11
159.4
 21
9.25
 31
0.0
  0
MTEXT
  5
8D
330
1F
100
AcDbEntity
  8
0
  6
Continuous
 62
     7
370
     0
100
AcDbMText
 10
280.2769372799
 20
19.4324449477
 30
0.0
 40
1.5
 41
0.0
 71
     1
 72
     1
  1
Blattformat
  7
SLDTEXTSTYLE0
 73
     1
 44
1.0
  0
MTEXT
  5
8E
330
1F
100
AcDbEntity
  8
0
  6
Continuous
 62
     7
370
     0
100
AcDbMText
 10
162.3642408927
 20
25.8749304694
 30
0.0
 40
1.5
 41
0.0
 71
     1
 72
     1
  1
Ch. Höfig
  7
SLDTEXTSTYLE0
 73
     1
 44
1.0
  0
MTEXT
  5
8F
330
1F
100
AcDbEntity
  8
0
  6
Continuous
 62
     7
370
     0
100
AcDbMText
 10
166.7761978259
 20
32.2479424335
 30
0.0
 40
1.5
 41
0.0
 71
     2
 72
     1
  1
Name
  7
SLDTEXTSTYLE0
 73
     1
 44
1.0
  0
MTEXT
  5
90
330
1F
100
AcDbEntity
  8
0
  6
Continuous
 62
     7
370
     0
100
AcDbMText
 10
160.4458623088
 20
20.9860562892
 30
0.0
 40
1.5
 41
0.0
 71
     1
 72
     1
  1
Werkstoff:
  7
SLDTEXTSTYLE0
 73
     1
 44
1.0
  0
MTEXT
  5
91
330
1F
100
AcDbEntity
  8
0
  6
Continuous
 62
     7
370
     0
100
AcDbMText
 10
204.8649859034
 20
32.246101463
 30
0.0
 40
1.5
 41
0.0
 71
     1
 72
     1
  1
Artikelnummer
  7
SLDTEXTSTYLE0
 73
     1
 44
1.0
  0
MTEXT
  5
92
330
1F
100
AcDbEntity
  8
0
  6
Continuous
 62
     7
370
     0
100
AcDbMText
 10
204.8739661175
 20
19.868637827
 30
0.0
 40
1.5
 41
0.0
 71
     1
 72
     1
  1
Hersteller
  7
SLDTEXTSTYLE0
 73
     1
 44
1.0
  0
MTEXT
  5
93
330
1F
100
AcDbEntity
  8
0
  6
Continuous
 62
     7
370
     0
100
AcDbMText
 10
204.8739661175
 20
7.9000872745
 30
0.0
 40
1.5
 41
0.0
 71
     1
 72
     1
  1
Massstab: 1:1
  7
SLDTEXTSTYLE0
 73
     1
 44
1.0
  0
MTEXT
  5
95
330
1F
100
AcDbEntity
  8
0
  6
Continuous
 62
     7
370
     0
100
AcDbMText
 10
249.2782944278
 20
7.9000872745
 30
0.0
 40
1.5
 41
0.0
 71
     1
 72
     1
  1
Blatt 1 von 1
  7
SLDTEXTSTYLE1
 73
     1
 44
1.0
  0
MTEXT
  5
96
330
1F
100
AcDbEntity
  8
0
  6
Continuous
 62
     7
370
     0
100
AcDbMText
 10
283.018201252
 20
14.214493588
 30
0.0
 40
2.9104166667
 41
0.0
 71
     1
 72
     1
  1
A4
  7
SLDTEXTSTYLE0
 73
     1
 44
1.0
  0
MTEXT
  5
97
330
1F
100
AcDbEntity
  8
0
  6
Continuous
 62
     7
370
     0
100
AcDbMText
 10
244.7857210818
 20
18.2877193736
 30
0.0
 40
5.2916666667
 41
0.0
 71
     2
 72
     1
  1
Feldmann GmbH
  7
SLDTEXTSTYLE0
 73
     1
 44
1.0
  0
MTEXT
  5
98
330
1F
100
AcDbEntity
  8
0
  6
Continuous
 62
     7
370
     0
100
AcDbMText
 10
196.2543489966
 20
32.2479424335
 30
0.0
 40
1.5
 41
0.0
 71
     2
 72
     1
  1
Datum
  7
SLDTEXTSTYLE0
 73
     1
 44
1.0
  0
MTEXT
  5
99
330
1F
100
AcDbEntity
  8
0
  6
Continuous
 62
     7
370
     0
100
AcDbMText
 10
180.0267509503
 20
25.8749304694
 30
0.0
 40
1.5
 41
0.0
 71
     1
 72
     1
  1
CH
  7
SLDTEXTSTYLE0
 73
     1
 44
1.0
  0
MTEXT
  5
9A
330
1F
100
AcDbEntity
  8
0
  6
Continuous
 62
     7
370
     0
100
AcDbMText
 10
191.3972993064
 20
25.8769670829
 30
0.0
 40
1.5
 41
0.0
 71
     1
 72
     1
  1
25.09.2014
  7
SLDTEXTSTYLE0
 73
     1
 44
1.0
  0
MTEXT
  5
9B
330
1F
100
AcDbEntity
  8
0
  6
Continuous
 62
     7
370
     0
100
AcDbMText
 10
181.621327301
 20
7.901928245
 30
0.0
 40
1.5
 41
0.0
 71
     2
 72
     1
  1
Gewicht 0.179 kg
  7
SLDTEXTSTYLE0
 73
     1
 44
1.0
  0
MTEXT
  5
9C
330
1F
100
AcDbEntity
  8
0
  6
Continuous
 62
     7
370
     0
100
AcDbMText
 10
181.7128208897
 20
15.4168909468
 30
0.0
 40
2.1166666667
 41
0.0
 71
     2
 72
     1
  1
1.4301 (X5CrNi18-10)
  7
SLDTEXTSTYLE0
 73
     1
 44
1.0
  0
MTEXT
  5
9D
330
1F
100
AcDbEntity
  8
0
  6
Continuous
 62
     7
370
     0
100
AcDbMText
 10
230.538014275
 20
29.3753304705
 30
0.0
 40
4.2333333333
 41
0.0
 71
     2
 72
     1
  1
50281-240
  7
SLDTEXTSTYLE0
 73
     1
 44
1.0
  0
MTEXT
  5
9E
330
1F
100
AcDbEntity
  8
0
  6
Continuous
 62
     7
370
     0
100
AcDbMText
 10
181.7530017825
 20
32.0485308856
 30
0.0
 40
1.5
 41
0.0
 71
     2
 72
     1
  1
Signatur
  7
SLDTEXTSTYLE0
 73
     1
 44
1.0
  0
CIRCLE
  5
9F
330
1F
100
AcDbEntity
  8
0
  6
Continuous
 62
     7
370
    15
100
AcDbCircle
 10
122.6801269085
 20
159.8896734308
 30
0.0
 40
22.50000000000001
  0
LINE
  5
A0
330
1F
100
AcDbEntity
  8
0
  6
PHANTOM
 62
     7
370
    30
100
AcDbLine
 10
122.6801269085
 20
187.7896734308
 30
0.0
 11
122.6801269085
 21
131.9896734308
 31
0.0
  0
LINE
  5
A1
330
1F
100
AcDbEntity
  8
0
  6
Continuous
 62
     7
370
    30
100
AcDbLine
 10
135.3801269085
 20
185.7896734308
 30
0.0
 11
122.6801269085
 21
185.7896734308
 31
0.0
  0
SOLID
  5
A2
330
1F
100
AcDbEntity
  8
0
  6
Continuous
 62
     7
370
    30
100
AcDbTrace
 10
122.6801269085
 20
185.7896734308
 30
0.0
 11
129.0301269085
 21
184.7736734308
 31
0.0
 12
129.0301269085
 22
186.8056734308
 32
0.0
 13
129.0301269085
 23
186.8056734308
 33
0.0
  0
LINE
  5
A3
330
1F
100
AcDbEntity
  8
0
  6
Continuous
 62
     7
370
    30
100
AcDbLine
 10
135.3801269085
 20
133.9896734308
 30
0.0
 11
122.6801269085
 21
133.9896734308
 31
0.0
  0
SOLID
  5
A4
330
1F
100
AcDbEntity
  8
0
  6
Continuous
 62
     7
370
    30
100
AcDbTrace
 10
122.6801269085
 20
133.9896734308
 30
0.0
 11
129.0301269085
 21
132.9736734308
 31
0.0
 12
129.0301269085
 22
135.0056734308
 32
0.0
 13
129.0301269085
 23
135.0056734308
 33
0.0
  0
MTEXT
  5
A5
330
1F
100
AcDbEntity
  8
0
  6
Continuous
 62
     7
100
AcDbMText
 10
131.9319241324
 20
191.3448402794
 30
0.0
 40
3.5
 41
0.0
 71
     1
 72
     1
  1
A
  7
SLDTEXTSTYLE0
 73
     1
 44
1.0
  0
MTEXT
  5
A6
330
1F
100
AcDbEntity
  8
0
  6
Continuous
 62
     7
100
AcDbMText
 10
131.9319241324
 20
139.5448402794
 30
0.0
 40
3.5
 41
0.0
 71
     1
 72
     1
  1
A
  7
SLDTEXTSTYLE0
 73
     1
 44
1.0
  0
ARC
  5
A7
330
1F
100
AcDbEntity
  8
0
  6
Continuous
 62
     7
370
    15
100
AcDbCircle
 10
122.6801269085
 20
81.0179377852
 30
0.0
 40
22.50000000000001
100
AcDbArc
 50
318.4942214734
 51
221.5057785266
  0
LINE
  5
A8
330
1F
100
AcDbEntity
  8
0
  6
Continuous
 62
     7
370
    15
100
AcDbLine
 10
105.8301266612
 20
66.1072873456
 30
0.0
 11
139.5301271559
 21
66.1072873456
 31
0.0
  0
CIRCLE
  5
A9
330
1F
100
AcDbEntity
  8
0
  6
Continuous
 62
     7
370
    15
100
AcDbCircle
 10
226.5019224415
 20
83.02473427
 30
0.0
 40
22.5
  0
LINE
  5
AA
330
1F
100
AcDbEntity
  8
0
  6
Continuous
 62
     7
370
    15
100
AcDbLine
 10
188.7914284645
 20
160.8290979274
 30
0.0
 11
188.2914284645
 21
160.8290979329
 31
0.0
  0
SPLINE
  5
AB
330
1F
100
AcDbEntity
  8
0
  6
Continuous
 62
     7
370
    15
100
AcDbSpline
210
0.0
220
0.0
230
1.0
 70
    24
 71
     3
 72
    14
 73
    10
 74
     0
 42
0.000000001
 43
0.00000001
 40
0.4195406577999453
 40
0.4195406577999453
 40
0.4195406577999453
 40
0.4195406577999453
 40
0.4904942776695666
 40
0.5661557919819237
 40
0.6399873346864665
 40
0.7167654882718498
 40
0.8021439047100982
 40
0.8958332007101922
 40
1.0
 40
1.0
 40
1.0
 40
1.0
 10
188.7914284645258
 20
160.8290979274327
 30
0.0
 10
188.7914284645258
 20
160.8242051835922
 30
0.0
 10
188.7914284645258
 20
160.8132662539521
 30
0.0
 10
188.7914284645258
 20
160.7942926297661
 30
0.0
 10
188.7914284645258
 20
160.7717354140247
 30
0.0
 10
188.7914284645258
 20
160.7455278306553
 30
0.0
 10
188.7914284645258
 20
160.714963069909
 30
0.0
 10
188.7914284645258
 20
160.6793548170695
 30
0.0
 10
188.7914284645258
 20
160.6535138923546
 30
0.0
 10
188.7914284645258
 20
160.6399092247082
 30
0.0
  0
LINE
  5
AC
330
1F
100
AcDbEntity
  8
0
  6
Continuous
 62
     7
370
    15
100
AcDbLine
 10
188.7914284645
 20
157.9609574511
 30
0.0
 11
188.7914284645
 21
160.6592824241
 31
0.0
  0
LINE
  5
AD
330
1F
100
AcDbEntity
  8
0
  6
Continuous
 62
     7
370
    15
100
AcDbLine
 10
188.7914284645
 20
157.9609574511
 30
0.0
 11
188.2914284645
 21
157.9609574511
 31
0.0
  0
LINE
  5
AE
330
1F
100
AcDbEntity
  8
0
  6
Continuous
 62
     7
370
    15
100
AcDbLine
 10
188.2914284645
 20
157.8720452256
 30
0.0
 11
188.2914284645
 21
157.9609574511
 31
0.0
  0
LINE
  5
AF
330
1F
100
AcDbEntity
  8
0
  6
Continuous
 62
     7
370
    15
100
AcDbLine
 10
188.2914284645
 20
157.8720452256
 30
0.0
 11
188.7914284645
 21
157.8720452256
 31
0.0
  0
LINE
  5
B0
330
1F
100
AcDbEntity
  8
0
  6
Continuous
 62
     7
370
    15
100
AcDbLine
 10
188.7914284645
 20
143.0396734308
 30
0.0
 11
188.7914284645
 21
157.8720452256
 31
0.0
  0
LINE
  5
B1
330
1F
100
AcDbEntity
  8
0
  6
Continuous
 62
     7
370
    15
100
AcDbLine
 10
188.7914284645
 20
143.0396734308
 30
0.0
 11
212.7920790204
 21
143.0396734308
 31
0.0
  0
ARC
  5
B2
330
1F
100
AcDbEntity
  8
0
  6
Continuous
 62
     7
370
    15
100
AcDbCircle
 10
197.8814284645
 20
159.8896734308
 30
0.0
 40
22.49999999999999
100
AcDbArc
 50
48.4942214734
 51
311.5057785266
  0
LINE
  5
B3
330
1F
100
AcDbEntity
  8
0
  6
Continuous
 62
     7
370
    15
100
AcDbLine
 10
212.7920790204
 20
176.7396734308
 30
0.0
 11
188.7914284645
 21
176.7396734308
 31
0.0
  0
LINE
  5
B4
330
1F
100
AcDbEntity
  8
0
  6
Continuous
 62
     7
370
    15
100
AcDbLine
 10
188.7914284645
 20
160.8290979274
 30
0.0
 11
188.7914284645
 21
176.7396734308
 31
0.0
  0
LINE
  5
B5
330
1F
100
AcDbEntity
  8
0
  6
Continuous
 62
     7
370
    15
100
AcDbLine
 10
188.2914284645
 20
160.6592824365
 30
0.0
 11
188.7914284645
 21
160.6592824241
 31
0.0
  0
LINE
  5
B6
330
1F
100
AcDbEntity
  8
0
  6
Continuous
 62
     7
370
    15
100
AcDbLine
 10
188.2914284645
 20
160.8290979329
 30
0.0
 11
188.2914284645
 21
160.6592824365
 31
0.0
  0
LINE
  5
B7
330
1F
100
AcDbEntity
  8
0
  6
Continuous
 62
     7
370
    15
100
AcDbLine
 10
212.7920790204
 20
176.7396734308
 30
0.0
 11
212.7920790204
 21
143.0396734308
 31
0.0
  0
LINE
  5
B8
330
1F
100
AcDbEntity
  8
0
  6
Continuous
 62
     7
370
    15
100
AcDbLine
 10
188.7914284645
 20
157.9609574511
 30
0.0
 11
188.7914284645
 21
157.8720452256
 31
0.0
  0
HATCH
  5
B9
330
1F
100
AcDbEntity
  8
0
  6
Continuous
 62
     7
370
     0
100
AcDbHatch
 10
0.0
 20
0.0
 30
0.0
210
0.0
220
0.0
230
1.0
  2
DIN 201 Stahl und Stahlguss
 70
     0
 71
     0
 91
        1
 92
        0
 93
       12
 72
     1
 10
188.2914284645259
 20
160.8290979329382
 11
188.7914284645259
 21
160.8290979274327
 72
     1
 10
188.7914284645259
 20
160.8290979274327
 11
188.7914284645259
 21
176.7396734307712
 72
     1
 10
188.7914284645259
 20
176.7396734307712
 11
212.7920790204205
 21
176.7396734307712
 72
     2
 10
197.8814284645259
 20
159.8896734307712
 40
22.5
 50
48.49422147339427
 51
311.5057785266065
 73
     1
 72
     1
 10
212.7920790204205
 20
143.0396734307712
 11
188.7914284645259
 21
143.0396734307712
 72
     1
 10
188.7914284645259
 20
143.0396734307712
 11
188.7914284645259
 21
157.872045225643
 72
     1
 10
188.7914284645259
 20
157.872045225643
 11
188.2914284645259
 21
157.872045225643
 72
     1
 10
188.2914284645259
 20
157.872045225643
 11
188.2914284645259
 21
157.960957451074
 72
     1
 10
188.2914284645259
 20
157.960957451074
 11
188.7914284645259
 21
157.960957451074
 72
     1
 10
188.7914284645259
 20
157.960957451074
 11
188.7914284645258
 21
160.6592824240614
 72
     1
 10
188.7914284645258
 20
160.6592824240614
 11
188.2914284645258
 21
160.6592824364956
 72
     1
 10
188.2914284645258
 20
160.6592824364956
 11
188.2914284645259
 21
160.8290979329382
 97
        0
 75
     0
 76
     2
 52
0.0
 41
1.0
 77
     0
 78
     4
 53
45.00000209717174
 43
0.0
 44
0.0
 45
-13.47038467465416
 46
13.47038368855329
 79
     0
 53
45.00000209717174
 43
4.490128
 44
0.0
 45
-13.47038467465416
 46
13.47038368855329
 79
     0
 53
45.00000209717174
 43
8.980256
 44
0.0
 45
-13.47038467465416
 46
13.47038368855329
 79
     0
 53
45.00000209717174
 43
13.47038
 44
0.0
 45
-13.47038467465416
 46
13.47038368855329
 79
     0
 98
        1
 10
0.0
 20
0.0
  0
MTEXT
  5
BA
330
1F
100
AcDbEntity
  8
0
  6
Continuous
 62
     7
370
     0
100
AcDbMText
 10
193.7975179494
 20
131.1257159895
 30
0.0
 40
3.5
 41
0.0
 71
     2
 72
     1
  1
A-A
  7
SLDTEXTSTYLE0
 73
     1
 44
1.0
  0
CIRCLE
  5
BB
330
1F
100
AcDbEntity
  8
0
  6
Continuous
 62
     7
370
    15
100
AcDbCircle
 10
40.2621978058
 20
159.8896734308
 30
0.0
 40
22.50000000000001
  0
CIRCLE
  5
BC
330
1F
100
AcDbEntity
  8
0
  6
Continuous
 62
     7
370
    15
100
AcDbCircle
 10
40.2621978058
 20
83.1442333756
 30
0.0
 40
22.50000000000001
  0
CIRCLE
  5
BD
330
1F
100
AcDbEntity
  8
0
  6
Continuous
 62
     7
370
    15
100
AcDbCircle
 10
40.2621978058
 20
83.1442333756
 30
0.0
 40
16.85
  0
LINE
  5
BE
330
1F
100
AcDbEntity
  8
0
  6
Continuous
 62
     7
370
    15
100
AcDbLine
 10
36.0899220316
 20
80.6008305399
 30
0.0
 11
36.2256059518
 21
81.2622888943
 31
0.0
  0
SPLINE
  5
BF
330
1F
100
AcDbEntity
  8
0
  6
Continuous
 62
     7
370
    15
100
AcDbSpline
210
0.0
220
0.0
230
1.0
 70
     8
 71
     3
 72
    15
 73
    11
 74
     0
 42
0.000000001
 43
0.00000001
 40
0.0
 40
0.0
 40
0.0
 40
0.0
 40
0.1022030370352211
 40
0.2110233423738765
 40
0.3250996615652083
 40
0.44650209713489
 40
0.5737877176488565
 40
0.7089007097660658
 40
0.8503578712934012
 40
1.0
 40
1.0
 40
1.0
 40
1.0
 10
36.38143024435126
 20
80.66867247815365
 30
0.0
 10
36.37117615518931
 20
80.66845302851968
 30
0.0
 10
36.3500040625517
 20
80.66799992070032
 30
0.0
 10
36.31752727982963
 20
80.66466371505466
 30
0.0
 10
36.28339915834736
 20
80.65928160079164
 30
0.0
 10
36.24775052461034
 20
80.65187846558753
 30
0.0
 10
36.21047432065473
 20
80.6421905288365
 30
0.0
 10
36.17164921085603
 20
80.63058117889766
 30
0.0
 10
36.1311935624688
 20
80.61670113771723
 30
0.0
 10
36.10393477973475
 20
80.60621902121179
 30
0.0
 10
36.08992216475725
 20
80.60083059781176
 30
0.0
  0
SPLINE
  5
C0
330
1F
100
AcDbEntity
  8
0
  6
Continuous
 62
     7
370
    15
100
AcDbSpline
210
0.0
220
0.0
230
1.0
 70
     8
 71
     3
 72
    23
 73
    19
 74
     0
 42
0.000000001
 43
0.00000001
 40
0.0
 40
0.0
 40
0.0
 40
0.0
 40
0.0653513820265941
 40
0.1279160318306124
 40
0.1883602055717004
 40
0.2472160772654525
 40
0.3056301291974112
 40
0.3637698398318194
 40
0.42266091391278
 40
0.4826872940903925
 40
0.5433002212395593
 40
0.6041179553231036
 40
0.6649648912652848
 40
0.7274134941125657
 40
0.7914676251494243
 40
0.8580554427291001
 40
0.9270368146149475
 40
0.9999999999999999
 40
0.9999999999999999
 40
0.9999999999999999
 40
0.9999999999999999
 10
36.70049908783417
 20
80.37663438386946
 30
0.0
 10
36.70025019827582
 20
80.387246349512
 30
0.0
 10
36.69976303237848
 20
80.4080177623394
 30
0.0
 10
36.69578272753182
 20
80.43840674810737
 30
0.0
 10
36.68885934810051
 20
80.46716054683446
 30
0.0
 10
36.67924972681104
 20
80.4944180102703
 30
0.0
 10
36.66704884144745
 20
80.52020484711016
 30
0.0
 10
36.65213907458885
 20
80.54454767045965
 30
0.0
 10
36.63424061762805
 20
80.567125637184
 30
0.0
 10
36.61379517164364
 20
80.58794931072093
 30
0.0
 10
36.5913970430729
 20
80.60716746283072
 30
0.0
 10
36.56666086655554
 20
80.62355049550749
 30
0.0
 10
36.54010428708237
 20
80.63733298819137
 30
0.0
 10
36.51204726585456
 20
80.64922714232688
 30
0.0
 10
36.48182243811468
 20
80.65776968597484
 30
0.0
 10
36.45002835385222
 20
80.66418314267467
 30
0.0
 10
36.41632168150322
 20
80.66789311606796
 30
0.0
 10
36.39327621307164
 20
80.66840787744808
 30
0.0
 10
36.38143024435126
 20
80.66867247815365
 30
0.0
  0
SPLINE
  5
C1
330
1F
100
AcDbEntity
  8
0
  6
Continuous
 62
     7
370
    15
100
AcDbSpline
210
0.0
220
0.0
230
1.0
 70
     8
 71
     3
 72
    23
 73
    19
 74
     0
 42
0.000000001
 43
0.00000001
 40
0.0
 40
0.0
 40
0.0
 40
0.0
 40
0.0642072952829854
 40
0.1264246897797428
 40
0.1876802842649218
 40
0.2482164244552129
 40
0.3083050600086129
 40
0.3696609913251432
 40
0.4316985517867804
 40
0.4959468922087642
 40
0.5597580239721202
 40
0.6222954078261586
 40
0.6839106352841741
 40
0.7450924080566247
 40
0.8067402253892929
 40
0.8690866181212022
 40
0.9332900029747997
 40
1.0
 40
1.0
 40
1.0
 40
1.0
 10
36.36473478161088
 20
80.04113508499125
 30
0.0
 10
36.37605836030432
 20
80.04144531949706
 30
0.0
 10
36.39835457940536
 20
80.04205617377742
 30
0.0
 10
36.43116721663753
 20
80.04675782418043
 30
0.0
 10
36.46284648754132
 20
80.05399893000207
 30
0.0
 10
36.49307980393533
 20
80.06483545257034
 30
0.0
 10
36.52239621919666
 20
80.07800592649913
 30
0.0
 10
36.55005416218397
 20
80.09490716051288
 30
0.0
 10
36.5768537615794
 20
80.11435782224655
 30
0.0
 10
36.60196201442813
 20
80.13664202467366
 30
0.0
 10
36.62495787768993
 20
80.16119902234226
 30
0.0
 10
36.6452764115709
 20
80.1874598228332
 30
0.0
 10
36.662201018729
 20
80.2154742261396
 30
0.0
 10
36.67646361345058
 20
80.24475723331837
 30
0.0
 10
36.68729387818414
 20
80.27562978320427
 30
0.0
 10
36.69502008239633
 20
80.30794719167717
 30
0.0
 10
36.69955695284261
 20
80.34178928240996
 30
0.0
 10
36.7001810595582
 20
80.36487202747419
 30
0.0
 10
36.70049908783417
 20
80.37663438386946
 30
0.0
  0
SPLINE
  5
C2
330
1F
100
AcDbEntity
  8
0
  6
Continuous
 62
     7
370
    15
100
AcDbSpline
210
0.0
220
0.0
230
1.0
 70
     8
 71
     3
 72
    19
 73
    15
 74
     0
 42
0.000000001
 43
0.00000001
 40
0.0
 40
0.0
 40
0.0
 40
0.0
 40
0.0946872518675535
 40
0.1819941557072751
 40
0.2643769486105129
 40
0.3421798619477727
 40
0.4186176108621463
 40
0.4965090753719096
 40
0.5773690916117329
 40
0.6615105924541973
 40
0.7467325508291976
 40
0.8312579843277421
 40
0.9152056162136538
 40
1.0
 40
1.0
 40
1.0
 40
1.0
 10
36.07296169467178
 20
80.27858166618783
 30
0.0
 10
36.07588290535198
 20
80.26596616183969
 30
0.0
 10
36.08149763448291
 20
80.24171846199224
 30
0.0
 10
36.09382183118382
 20
80.20765096095266
 30
0.0
 10
36.10889018292499
 20
80.1772922067656
 30
0.0
 10
36.12680789795175
 20
80.1502406083259
 30
0.0
 10
36.14818246304625
 20
80.12665149328546
 30
0.0
 10
36.17257305077084
 20
80.10562956808876
 30
0.0
 10
36.1999187675753
 20
80.08666456384888
 30
0.0
 10
36.23030549420932
 20
80.07085655362847
 30
0.0
 10
36.26236281883338
 20
80.05737461409929
 30
0.0
 10
36.29591471071201
 20
80.04839703892411
 30
0.0
 10
36.33004760357459
 20
80.04208449906983
 30
0.0
 10
36.35313377326197
 20
80.04145261329063
 30
0.0
 10
36.36473478161088
 20
80.04113508499125
 30
0.0
  0
LINE
  5
C3
330
1F
100
AcDbEntity
  8
0
  6
Continuous
 62
     7
370
    15
100
AcDbLine
 10
35.954238577
 20
80.2785817532
 30
0.0
 11
36.0729617162
 21
80.2785817532
 31
0.0
  0
SPLINE
  5
C4
330
1F
100
AcDbEntity
  8
0
  6
Continuous
 62
     7
370
    15
100
AcDbSpline
210
0.0
220
0.0
230
1.0
 70
     8
 71
     3
 72
    23
 73
    19
 74
     0
 42
0.000000001
 43
0.00000001
 40
0.0
 40
0.0
 40
0.0
 40
0.0
 40
0.0654211437588923
 40
0.1287083718818821
 40
0.1902361418635385
 40
0.250724402033538
 40
0.3106371794134432
 40
0.3707664082897262
 40
0.4316147444123522
 40
0.4935229735663536
 40
0.5558834553775327
 40
0.6173423673185093
 40
0.6786680390972748
 40
0.7407113595451474
 40
0.802985362512744
 40
0.8668025802655174
 40
0.9323471713458867
 40
1.0
 40
1.0
 40
1.0
 40
1.0
 10
36.35784459063866
 20
79.90545132430749
 30
0.0
 10
36.34466298067085
 20
79.90571244461698
 30
0.0
 10
36.31872972025599
 20
79.90622616797872
 30
0.0
 10
36.28073533924978
 20
79.91160041686939
 30
0.0
 10
36.24417952102635
 20
79.9192974924106
 30
0.0
 10
36.20935653636269
 20
79.9308772729783
 30
0.0
 10
36.17595430275981
 20
79.94538675638799
 30
0.0
 10
36.14442250169082
 20
79.96372471406632
 30
0.0
 10
36.11395543752986
 20
79.98450550625643
 30
0.0
 10
36.08579166173467
 20
80.0090287349068
 30
0.0
 10
36.05965229741727
 20
80.03583317424648
 30
0.0
 10
36.03625311102878
 20
80.06492133028235
 30
0.0
 10
36.01541393172653
 20
80.09581311345178
 30
0.0
 10
35.9974684737873
 20
80.12865854668874
 30
0.0
 10
35.9821611859683
 20
80.16337132475147
 30
0.0
 10
35.97013587789943
 20
80.20008150663622
 30
0.0
 10
35.96043007112034
 20
80.23859728193474
 30
0.0
 10
35.95632395683314
 20
80.26511363854826
 30
0.0
 10
35.95423840407349
 20
80.27858166618783
 30
0.0
  0
SPLINE
  5
C5
330
1F
100
AcDbEntity
  8
0
  6
Continuous
 62
     7
370
    15
100
AcDbSpline
210
0.0
220
0.0
230
1.0
 70
     8
 71
     3
 72
    31
 73
    27
 74
     0
 42
0.000000001
 43
0.00000001
 40
0.0
 40
0.0
 40
0.0
 40
0.0
 40
0.0440144705761402
 40
0.0874341236677061
 40
0.1301183986578983
 40
0.1725536945581828
 40
0.2145547559681392
 40
0.2562980920971313
 40
0.2984382251332504
 40
0.3408490025880961
 40
0.3827151889670273
 40
0.423924045407532
 40
0.4642462432504176
 40
0.5040736714617963
 40
0.5438619058684914
 40
0.5835667249796539
 40
0.6230943188523339
 40
0.663229060768585
 40
0.7035512586114708
 40
0.7439378946861849
 40
0.7845412548000923
 40
0.8257501112405975
 40
0.8677573633885067
 40
0.9107451640323098
 40
0.9549144468914776
 40
1.0
 40
1.0
 40
1.0
 40
1.0
 10
36.81922237843246
 20
80.37159924431283
 30
0.0
 10
36.81897099581425
 20
80.36081852412028
 30
0.0
 10
36.81847162779641
 20
80.33940277584011
 30
0.0
 10
36.81593216163191
 20
80.30759827141442
 30
0.0
 10
36.81104276895289
 20
80.27646708152913
 30
0.0
 10
36.8044781827588
 20
80.24600507628057
 30
0.0
 10
36.79595768549208
 20
80.21626992667716
 30
0.0
 10
36.78564307285637
 20
80.18717652177628
 30
0.0
 10
36.77302016960116
 20
80.15890594125133
 30
0.0
 10
36.75917438192889
 20
80.13119068777507
 30
0.0
 10
36.74358419529054
 20
80.1046573234485
 30
0.0
 10
36.72628100948087
 20
80.07984356960647
 30
0.0
 10
36.70800000535815
 20
80.05637718940423
 30
0.0
 10
36.68832960073553
 20
80.03450985579659
 30
0.0
 10
36.66708696270189
 20
80.01438526272395
 30
0.0
 10
36.64452935617976
 20
79.99588397774998
 30
0.0
 10
36.62083678083244
 20
79.97869311778422
 30
0.0
 10
36.5956426862647
 20
79.96351049639348
 30
0.0
 10
36.56950847395407
 20
79.9495393790381
 30
0.0
 10
36.54205673711823
 20
79.93807780391434
 30
0.0
 10
36.51391236521911
 20
79.92783066978699
 30
0.0
 10
36.48467028426511
 20
79.91966278286236
 30
0.0
 10
36.45439673009189
 20
79.91326268041011
 30
0.0
 10
36.42304180007336
 20
79.9089157272062
 30
0.0
 10
36.39076993967748
 20
79.90574963328146
 30
0.0
 10
36.36889456289878
 20
79.9055514388388
 30
0.0
 10
36.35784459063866
 20
79.90545132430749
 30
0.0
  0
SPLINE
  5
C6
330
1F
100
AcDbEntity
  8
0
  6
Continuous
 62
     7
370
    15
100
AcDbSpline
210
0.0
220
0.0
230
1.0
 70
     8
 71
     3
 72
    23
 73
    19
 74
     0
 42
0.000000001
 43
0.00000001
 40
0.0
 40
0.0
 40
0.0
 40
0.0
 40
0.0658076458106954
 40
0.1293942736680555
 40
0.1908940606321903
 40
0.2512810689298358
 40
0.3108149644652733
 40
0.3703709874482454
 40
0.4307682625897273
 40
0.4928812506175029
 40
0.5551039481552507
 40
0.6160670509938433
 40
0.677256033174654
 40
0.7382598051991174
 40
0.8007621343762964
 40
0.8647775815744849
 40
0.9310452949994039
 40
1.0
 40
1.0
 40
1.0
 40
1.0
 10
36.40289583930318
 20
80.8043562388374
 30
0.0
 10
36.41766856234917
 20
80.80403649528616
 30
0.0
 10
36.44671542681432
 20
80.80340779957665
 30
0.0
 10
36.48921467166013
 20
80.79737082076883
 30
0.0
 10
36.5297839497515
 20
80.787868531608
 30
0.0
 10
36.5683384170503
 20
80.77459381059442
 30
0.0
 10
36.60494939898761
 20
80.75761900072632
 30
0.0
 10
36.63928005466625
 20
80.73641455898394
 30
0.0
 10
36.67184569439639
 20
80.71164452012678
 30
0.0
 10
36.70206209151598
 20
80.68316589953491
 30
0.0
 10
36.72947455323326
 20
80.65182350272678
 30
0.0
 10
36.75357657908954
 20
80.61812395027881
 30
0.0
 10
36.77404874863906
 20
80.58239474465057
 30
0.0
 10
36.79051367682153
 20
80.54429451456201
 30
0.0
 10
36.80366132697939
 20
80.50424447740988
 30
0.0
 10
36.81241222979238
 20
80.46182323340948
 30
0.0
 10
36.81823937871525
 20
80.41743064042822
 30
0.0
 10
36.81889039973485
 20
80.38707742495264
 30
0.0
 10
36.81922237843246
 20
80.37159924431283
 30
0.0
  0
SPLINE
  5
C7
330
1F
100
AcDbEntity
  8
0
  6
Continuous
 62
     7
370
    15
100
AcDbSpline
210
0.0
220
0.0
230
1.0
 70
     8
 71
     3
 72
    11
 73
     7
 74
     0
 42
0.000000001
 43
0.00000001
 40
0.0
 40
0.0
 40
0.0
 40
0.0
 40
0.2750683690187426
 40
0.532901460089937
 40
0.773973459592444
 40
1.0
 40
1.0
 40
1.0
 40
1.0
 10
36.24707152039293
 20
80.77865052636412
 30
0.0
 10
36.26107775862345
 20
80.78251732553049
 30
0.0
 10
36.28821262996486
 20
80.7900086373414
 30
0.0
 10
36.32826293455531
 20
80.79832629461683
 30
0.0
 10
36.36628439241488
 20
80.80334031662666
 30
0.0
 10
36.39095692825457
 20
80.80402494887382
 30
0.0
 10
36.40289583930318
 20
80.8043562388374
 30
0.0
  0
LINE
  5
C8
330
1F
100
AcDbEntity
  8
0
  6
Continuous
 62
     7
370
    15
100
AcDbLine
 10
36.3183586953
 20
81.1266052069
 30
0.0
 11
36.2470715402
 21
80.7786505202
 31
0.0
  0
LINE
  5
C9
330
1F
100
AcDbEntity
  8
0
  6
Continuous
 62
     7
370
    15
100
AcDbLine
 10
36.7683409343
 20
81.1266052069
 30
0.0
 11
36.3183586953
 21
81.1266052069
 31
0.0
  0
LINE
  5
CA
330
1F
100
AcDbEntity
  8
0
  6
Continuous
 62
     7
370
    15
100
AcDbLine
 10
36.7683409343
 20
81.2622888943
 30
0.0
 11
36.7683409343
 21
81.1266052069
 31
0.0
  0
LINE
  5
CB
330
1F
100
AcDbEntity
  8
0
  6
Continuous
 62
     7
370
    15
100
AcDbLine
 10
36.2256059518
 20
81.2622888943
 30
0.0
 11
36.7683409343
 21
81.2622888943
 31
0.0
  0
SPLINE
  5
CC
330
1F
100
AcDbEntity
  8
0
  6
Continuous
 62
     7
370
    15
100
AcDbSpline
210
0.0
220
0.0
230
1.0
 70
     8
 71
     3
 72
    23
 73
    19
 74
     0
 42
0.000000001
 43
0.00000001
 40
0.0
 40
0.0
 40
0.0
 40
0.0
 40
0.0619654006870619
 40
0.1221219056382953
 40
0.1809884968498416
 40
0.2399332164519022
 40
0.299905831106524
 40
0.3599888474769873
 40
0.421775741741646
 40
0.4865758264211264
 40
0.5515348046197414
 40
0.6150175427599796
 40
0.6772586166616573
 40
0.7397299623627135
 40
0.8030501026629515
 40
0.8664951320156983
 40
0.9319734741771494
 40
1.0
 40
1.0
 40
1.0
 40
1.0
 10
38.73575549809057
 20
80.89233867740577
 30
0.0
 10
38.73551520263812
 20
80.90136527740034
 30
0.0
 10
38.73504162644487
 20
80.91915497262619
 30
0.0
 10
38.73086208007072
 20
80.94523750654096
 30
0.0
 10
38.72454590663619
 20
80.97039742128682
 30
0.0
 10
38.71549516921927
 20
80.99471210767958
 30
0.0
 10
38.70354857400844
 20
81.01793710116888
 30
0.0
 10
38.68900655243244
 20
81.04010067255535
 30
0.0
 10
38.67222816536676
 20
81.06152775166373
 30
0.0
 10
38.65281860820896
 20
81.08161843277495
 30
0.0
 10
38.63149639685349
 20
81.100018769371
 30
0.0
 10
38.60897118942098
 20
81.1163186468937
 30
0.0
 10
38.58513975120369
 20
81.12994057270159
 30
0.0
 10
38.560102562167
 20
81.14110731121917
 30
0.0
 10
38.5339294234323
 20
81.1498670535166
 30
0.0
 10
38.50656971322234
 20
81.15593681419142
 30
0.0
 10
38.47809902849652
 20
81.1597477530641
 30
0.0
 10
38.45865839173249
 20
81.16026337756519
 30
0.0
 10
38.44875254336301
 20
81.16052611063228
 30
0.0
  0
SPLINE
  5
CD
330
1F
100
AcDbEntity
  8
0
  6
Continuous
 62
     7
370
    15
100
AcDbSpline
210
0.0
220
0.0
230
1.0
 70
     8
 71
     3
 72
    19
 73
    15
 74
     0
 42
0.000000001
 43
0.00000001
 40
0.0
 40
0.0
 40
0.0
 40
0.0
 40
0.1108026438013182
 40
0.2128292023477701
 40
0.3061013098231108
 40
0.3906473211160096
 40
0.4669244693608514
 40
0.5344810392840301
 40
0.5935869409656725
 40
0.6445570045087174
 40
0.736200452629373
 40
0.8250240256188639
 40
0.9119855848297578
 40
1.0
 40
1.0
 40
1.0
 40
1.0
 10
38.48558856432989
 20
80.48687743942502
 30
0.0
 10
38.49807987868881
 20
80.49991697791214
 30
0.0
 10
38.5220731371534
 20
80.52496326272978
 30
0.0
 10
38.55600881350688
 20
80.56152979825664
 30
0.0
 10
38.58648843111305
 20
80.59545298776712
 30
0.0
 10
38.61370929088098
 20
80.62666873673274
 30
0.0
 10
38.63708088368293
 20
80.6556336447983
 30
0.0
 10
38.65782128087749
 20
80.68140961907105
 30
0.0
 10
38.67443922746892
 20
80.70512930713387
 30
0.0
 10
38.69247451095801
 20
80.73262352727342
 30
0.0
 10
38.70994229559365
 20
80.76619246858624
 30
0.0
 10
38.72495262064464
 20
80.80721561899146
 30
0.0
 10
38.7341052568142
 20
80.8494458603303
 30
0.0
 10
38.73520321547265
 20
80.87798383266662
 30
0.0
 10
38.73575549809057
 20
80.89233867740577
 30
0.0
  0
LINE
  5
CE
330
1F
100
AcDbEntity
  8
0
  6
Continuous
 62
     7
370
    15
100
AcDbLine
 10
37.9725342712
 20
79.9393721854
 30
0.0
 11
38.4855885852
 21
80.4868774021
 31
0.0
  0
LINE
  5
CF
330
1F
100
AcDbEntity
  8
0
  6
Continuous
 62
     7
370
    15
100
AcDbLine
 10
38.8714392532
 20
79.9393721854
 30
0.0
 11
37.9725342712
 21
79.9393721854
 31
0.0
  0
LINE
  5
D0
330
1F
100
AcDbEntity
  8
0
  6
Continuous
 62
     7
370
    15
100
AcDbLine
 10
38.8714392532
 20
80.0750561057
 30
0.0
 11
38.8714392532
 21
79.9393721854
 31
0.0
  0
LINE
  5
D1
330
1F
100
AcDbEntity
  8
0
  6
Continuous
 62
     7
370
    15
100
AcDbLine
 10
38.2558272315
 20
80.0750561057
 30
0.0
 11
38.8714392532
 21
80.0750561057
 31
0.0
  0
LINE
  5
D2
330
1F
100
AcDbEntity
  8
0
  6
Continuous
 62
     7
370
    15
100
AcDbLine
 10
38.58682137
 20
80.4283107163
 30
0.0
 11
38.2558272315
 21
80.0750561057
 31
0.0
  0
SPLINE
  5
D3
330
1F
100
AcDbEntity
  8
0
  6
Continuous
 62
     7
370
    15
100
AcDbSpline
210
0.0
220
0.0
230
1.0
 70
     8
 71
     3
 72
    19
 73
    15
 74
     0
 42
0.000000001
 43
0.00000001
 40
0.0
 40
0.0
 40
0.0
 40
0.0
 40
0.0987021963061529
 40
0.1956723088106644
 40
0.2924224265079539
 40
0.3913425437998245
 40
0.4444624406718916
 40
0.5042287754493161
 40
0.5703523379946784
 40
0.6425457530977478
 40
0.7222875053440179
 40
0.8079211226827121
 40
0.9004695379850145
 40
1.0
 40
1.0
 40
1.0
 40
1.0
 10
38.85447878868887
 20
80.90293897120921
 30
0.0
 10
38.8538387756449
 20
80.88451345040265
 30
0.0
 10
38.85256998087975
 20
80.84798575059266
 30
0.0
 10
38.84171663021289
 20
80.79430751377973
 30
0.0
 10
38.82476571679289
 20
80.74230047739874
 30
0.0
 10
38.80435600155519
 20
80.70044441381326
 30
0.0
 10
38.78376671466282
 20
80.6667162777801
 30
0.0
 10
38.76521280554261
 20
80.6389468565753
 30
0.0
 10
38.74349247518615
 20
80.60904687298765
 30
0.0
 10
38.71828959053954
 20
80.57711645082547
 30
0.0
 10
38.69012549898257
 20
80.54290548371975
 30
0.0
 10
38.65874509795194
 20
80.50643463843525
 30
0.0
 10
38.62392461516409
 20
80.46808072543779
 30
0.0
 10
38.59948524136706
 20
80.44188485824655
 30
0.0
 10
38.58682137015254
 20
80.42831081616113
 30
0.0
  0
SPLINE
  5
D4
330
1F
100
AcDbEntity
  8
0
  6
Continuous
 62
     7
370
    15
100
AcDbSpline
210
0.0
220
0.0
230
1.0
 70
     8
 71
     3
 72
    23
 73
    19
 74
     0
 42
0.000000001
 43
0.00000001
 40
0.0
 40
0.0
 40
0.0
 40
0.0
 40
0.0694754602496701
 40
0.1365167976177988
 40
0.2007888236092608
 40
0.2638296728558258
 40
0.3257350229654198
 40
0.3872906922152911
 40
0.4495092187626025
 40
0.5129678195454411
 40
0.5762752154930606
 40
0.6375801002639239
 40
0.697902605917102
 40
0.7571720884269855
 40
0.8165985284886554
 40
0.8766531708928192
 40
0.9372896424102404
 40
1.0
 40
1.0
 40
1.0
 40
1.0
 10
38.45484771229997
 20
81.29620987131604
 30
0.0
 10
38.46935371054133
 20
81.2958702761715
 30
0.0
 10
38.49785747890848
 20
81.29520298384332
 30
0.0
 10
38.53945829984751
 20
81.28947247575718
 30
0.0
 10
38.57906162245719
 20
81.28049720749028
 30
0.0
 10
38.61659003420802
 20
81.26790477334805
 30
0.0
 10
38.65174411218585
 20
81.25097732608957
 30
0.0
 10
38.68478794152709
 20
81.23064313737056
 30
0.0
 10
38.71611491465345
 20
81.20712552253643
 30
0.0
 10
38.74431450250686
 20
81.17943732519137
 30
0.0
 10
38.77020892531342
 20
81.1498786858231
 30
0.0
 10
38.7925481705614
 20
81.11832224606493
 30
0.0
 10
38.811678741279
 20
81.0857296291429
 30
0.0
 10
38.82762467980552
 20
81.05185230294988
 30
0.0
 10
38.83936316089262
 20
81.01637128923437
 30
0.0
 10
38.84827516214182
 20
80.97980315008397
 30
0.0
 10
38.85331260719654
 20
80.94176936735231
 30
0.0
 10
38.85408572857818
 20
80.91602671090212
 30
0.0
 10
38.85447878868887
 20
80.90293897120921
 30
0.0
  0
SPLINE
  5
D5
330
1F
100
AcDbEntity
  8
0
  6
Continuous
 62
     7
370
    15
100
AcDbSpline
210
0.0
220
0.0
230
1.0
 70
     8
 71
     3
 72
    23
 73
    19
 74
     0
 42
0.000000001
 43
0.00000001
 40
0.0
 40
0.0
 40
0.0
 40
0.0
 40
0.068790794390618
 40
0.135103289431127
 40
0.198978674310651
 40
0.2619042997808557
 40
0.3234949693679689
 40
0.3851953779660512
 40
0.4469692387407742
 40
0.5097647767031322
 40
0.5722505688473682
 40
0.6334051756611526
 40
0.6932511629217527
 40
0.7525831627856701
 40
0.8125792661534212
 40
0.8732750849201917
 40
0.9355499428950291
 40
1.0
 40
1.0
 40
1.0
 40
1.0
 10
38.02341575450083
 20
80.85523764909382
 30
0.0
 10
38.02418952959609
 20
80.87098825250605
 30
0.0
 10
38.02570920329045
 20
80.90192201843169
 30
0.0
 10
38.03282584833878
 20
80.94702361400515
 30
0.0
 10
38.04300885847277
 20
80.9901336123327
 30
0.0
 10
38.05740652115099
 20
81.03090587148195
 30
0.0
 10
38.07528716780801
 20
81.06970089683388
 30
0.0
 10
38.09672976744305
 20
81.106364593241
 30
0.0
 10
38.12212744308354
 20
81.14075709611825
 30
0.0
 10
38.15093177410666
 20
81.17255957557815
 30
0.0
 10
38.18221634898757
 20
81.20173463954099
 30
0.0
 10
38.21597186777573
 20
81.22692873429213
 30
0.0
 10
38.25144305368454
 20
81.24821547317002
 30
0.0
 10
38.28852229079349
 20
81.2660110615975
 30
0.0
 10
38.32762792047221
 20
81.27936868193129
 30
0.0
 10
38.36840507209605
 20
81.28927983737708
 30
0.0
 10
38.41103290044128
 20
81.29524292043256
 30
0.0
 10
38.44007659925069
 20
81.29588388701514
 30
0.0
 10
38.45484771229997
 20
81.29620987131604
 30
0.0
  0
LINE
  5
D6
330
1F
100
AcDbEntity
  8
0
  6
Continuous
 62
     7
370
    15
100
AcDbLine
 10
38.142139055
 20
80.8552375993
 30
0.0
 11
38.0234156831
 21
80.8552375993
 31
0.0
  0
SPLINE
  5
D7
330
1F
100
AcDbEntity
  8
0
  6
Continuous
 62
     7
370
    15
100
AcDbSpline
210
0.0
220
0.0
230
1.0
 70
     8
 71
     3
 72
    23
 73
    19
 74
     0
 42
0.000000001
 43
0.00000001
 40
0.0
 40
0.0
 40
0.0
 40
0.0
 40
0.0644386715952432
 40
0.1265469112716779
 40
0.1868871534365706
 40
0.2458775355894558
 40
0.3040408846912673
 40
0.3621912180726605
 40
0.4209759327916444
 40
0.4806602832796667
 40
0.5406002749537583
 40
0.6006890983494534
 40
0.6619357897571958
 40
0.724442505913983
 40
0.7890383938817438
 40
0.8563137570509944
 40
0.9263520282058638
 40
1.0
 40
1.0
 40
1.0
 40
1.0
 10
38.44875254336301
 20
81.16052611063228
 30
0.0
 10
38.43840702026761
 20
81.1602558454611
 30
0.0
 10
38.41809012110129
 20
81.1597250892895
 30
0.0
 10
38.38826060567587
 20
81.15601235617346
 30
0.0
 10
38.35980437429037
 20
81.1496072319758
 30
0.0
 10
38.33264984549567
 20
81.1408470008831
 30
0.0
 10
38.30675107347716
 20
81.12971237082228
 30
0.0
 10
38.28223400921306
 20
81.11584376494669
 30
0.0
 10
38.25915369095112
 20
81.09929464699914
 30
0.0
 10
38.23746673123422
 20
81.08053169862666
 30
0.0
 10
38.21748540581437
 20
81.05964186126229
 30
0.0
 10
38.19992959261543
 20
81.03635476212688
 30
0.0
 10
38.18458980155519
 20
81.01109559024555
 30
0.0
 10
38.17120595437682
 20
80.98393250119105
 30
0.0
 10
38.16033698818482
 20
80.95461901887549
 30
0.0
 10
38.15203166049211
 20
80.92325920186431
 30
0.0
 10
38.14545984640387
 20
80.88998921542773
 30
0.0
 10
38.14326436391335
 20
80.86701390061586
 30
0.0
 10
38.14213904509912
 20
80.85523764909382
 30
0.0
  0
LINE
  5
D8
330
1F
100
AcDbEntity
  8
0
  6
Continuous
 62
     7
370
    15
100
AcDbLine
 10
40.4148420414
 20
81.1266052069
 30
0.0
 11
40.2113163939
 21
81.1266052069
 31
0.0
  0
LINE
  5
D9
330
1F
100
AcDbEntity
  8
0
  6
Continuous
 62
     7
370
    15
100
AcDbLine
 10
40.4148420414
 20
79.9393721854
 30
0.0
 11
40.4148420414
 21
81.1266052069
 31
0.0
  0
LINE
  5
DA
330
1F
100
AcDbEntity
  8
0
  6
Continuous
 62
     7
370
    15
100
AcDbLine
 10
40.5335653261
 20
79.9393721854
 30
0.0
 11
40.4148420414
 21
79.9393721854
 31
0.0
  0
LINE
  5
DB
330
1F
100
AcDbEntity
  8
0
  6
Continuous
 62
     7
370
    15
100
AcDbLine
 10
40.5335653261
 20
81.2622888943
 30
0.0
 11
40.5335653261
 21
79.9393721854
 31
0.0
  0
LINE
  5
DC
330
1F
100
AcDbEntity
  8
0
  6
Continuous
 62
     7
370
    15
100
AcDbLine
 10
40.2889635473
 20
81.2622888943
 30
0.0
 11
40.5335653261
 21
81.2622888943
 31
0.0
  0
LINE
  5
DD
330
1F
100
AcDbEntity
  8
0
  6
Continuous
 62
     7
370
    15
100
AcDbLine
 10
40.2113163939
 20
81.1266052069
 30
0.0
 11
40.2889635473
 21
81.2622888943
 31
0.0
  0
SPLINE
  5
DE
330
1F
100
AcDbEntity
  8
0
  6
Continuous
 62
     7
370
    15
100
AcDbSpline
210
0.0
220
0.0
230
1.0
 70
     8
 71
     3
 72
    23
 73
    19
 74
     0
 42
0.000000001
 43
0.00000001
 40
0.0
 40
0.0
 40
0.0
 40
0.0
 40
0.0619654006870619
 40
0.1221219056382952
 40
0.1809884968498417
 40
0.2399332164519023
 40
0.299905831106524
 40
0.3599888474769873
 40
0.4217757417416459
 40
0.486575826421126
 40
0.5515348046197412
 40
0.6150175427599794
 40
0.6772586166616572
 40
0.7397299623627133
 40
0.8030501026629513
 40
0.866495132015698
 40
0.9319734741771492
 40
0.9999999999999999
 40
0.9999999999999999
 40
0.9999999999999999
 40
0.9999999999999999
 10
42.39921703655211
 20
80.89233867740577
 30
0.0
 10
42.39897674109966
 20
80.90136527740034
 30
0.0
 10
42.39850316490641
 20
80.91915497262619
 30
0.0
 10
42.39432361853226
 20
80.94523750654096
 30
0.0
 10
42.38800744509773
 20
80.97039742128682
 30
0.0
 10
42.37895670768081
 20
80.99471210767958
 30
0.0
 10
42.36701011246998
 20
81.01793710116888
 30
0.0
 10
42.35246809089398
 20
81.04010067255535
 30
0.0
 10
42.33568970382829
 20
81.06152775166372
 30
0.0
 10
42.3162801466705
 20
81.08161843277495
 30
0.0
 10
42.29495793531503
 20
81.100018769371
 30
0.0
 10
42.27243272788252
 20
81.1163186468937
 30
0.0
 10
42.24860128966523
 20
81.12994057270159
 30
0.0
 10
42.22356410062854
 20
81.14110731121917
 30
0.0
 10
42.19739096189384
 20
81.1498670535166
 30
0.0
 10
42.17003125168388
 20
81.15593681419142
 30
0.0
 10
42.14156056695806
 20
81.1597477530641
 30
0.0
 10
42.12211993019403
 20
81.16026337756519
 30
0.0
 10
42.11221408182455
 20
81.16052611063228
 30
0.0
  0
SPLINE
  5
DF
330
1F
100
AcDbEntity
  8
0
  6
Continuous
 62
     7
370
    15
100
AcDbSpline
210
0.0
220
0.0
230
1.0
 70
     8
 71
     3
 72
    19
 73
    15
 74
     0
 42
0.000000001
 43
0.00000001
 40
0.0
 40
0.0
 40
0.0
 40
0.0
 40
0.1108026438013182
 40
0.2128292023477704
 40
0.3061013098231108
 40
0.3906473211160096
 40
0.4669244693608514
 40
0.5344810392840301
 40
0.5935869409656723
 40
0.6445570045087174
 40
0.7362004526293727
 40
0.8250240256188638
 40
0.9119855848297577
 40
1.0
 40
1.0
 40
1.0
 40
1.0
 10
42.14905010279143
 20
80.48687743942502
 30
0.0
 10
42.16154141715035
 20
80.49991697791214
 30
0.0
 10
42.18553467561494
 20
80.52496326272978
 30
0.0
 10
42.21947035196842
 20
80.56152979825664
 30
0.0
 10
42.24994996957459
 20
80.59545298776712
 30
0.0
 10
42.27717082934252
 20
80.62666873673274
 30
0.0
 10
42.30054242214447
 20
80.6556336447983
 30
0.0
 10
42.32128281933903
 20
80.68140961907105
 30
0.0
 10
42.33790076593046
 20
80.70512930713387
 30
0.0
 10
42.35593604941955
 20
80.73262352727342
 30
0.0
 10
42.37340383405519
 20
80.76619246858624
 30
0.0
 10
42.38841415910617
 20
80.80721561899146
 30
0.0
 10
42.39756679527574
 20
80.8494458603303
 30
0.0
 10
42.3986647539342
 20
80.87798383266662
 30
0.0
 10
42.39921703655211
 20
80.89233867740577
 30
0.0
  0
LINE
  5
E0
330
1F
100
AcDbEntity
  8
0
  6
Continuous
 62
     7
370
    15
100
AcDbLine
 10
41.6359959265
 20
79.9393721854
 30
0.0
 11
42.1490501242
 21
80.4868774021
 31
0.0
  0
LINE
  5
E1
330
1F
100
AcDbEntity
  8
0
  6
Continuous
 62
     7
370
    15
100
AcDbLine
 10
42.5349007922
 20
79.9393721854
 30
0.0
 11
41.6359959265
 21
79.9393721854
 31
0.0
  0
LINE
  5
E2
330
1F
100
AcDbEntity
  8
0
  6
Continuous
 62
     7
370
    15
100
AcDbLine
 10
42.5349007922
 20
80.0750561057
 30
0.0
 11
42.5349007922
 21
79.9393721854
 31
0.0
  0
LINE
  5
E3
330
1F
100
AcDbEntity
  8
0
  6
Continuous
 62
     7
370
    15
100
AcDbLine
 10
41.9192887705
 20
80.0750561057
 30
0.0
 11
42.5349007922
 21
80.0750561057
 31
0.0
  0
LINE
  5
E4
330
1F
100
AcDbEntity
  8
0
  6
Continuous
 62
     7
370
    15
100
AcDbLine
 10
42.2502827926
 20
80.4283107163
 30
0.0
 11
41.9192887705
 21
80.0750561057
 31
0.0
  0
SPLINE
  5
E5
330
1F
100
AcDbEntity
  8
0
  6
Continuous
 62
     7
370
    15
100
AcDbSpline
210
0.0
220
0.0
230
1.0
 70
     8
 71
     3
 72
    19
 73
    15
 74
     0
 42
0.000000001
 43
0.00000001
 40
0.0
 40
0.0
 40
0.0
 40
0.0
 40
0.0987021963061529
 40
0.1956723088106645
 40
0.292422426507954
 40
0.3913425437998246
 40
0.4444624406718917
 40
0.5042287754493163
 40
0.5703523379946783
 40
0.6425457530977479
 40
0.7222875053440178
 40
0.8079211226827122
 40
0.9004695379850147
 40
1.0
 40
1.0
 40
1.0
 40
1.0
 10
42.51794032715041
 20
80.90293897120921
 30
0.0
 10
42.51730031410644
 20
80.88451345040265
 30
0.0
 10
42.51603151934129
 20
80.84798575059266
 30
0.0
 10
42.50517816867444
 20
80.79430751377973
 30
0.0
 10
42.48822725525443
 20
80.74230047739874
 30
0.0
 10
42.46781754001673
 20
80.70044441381326
 30
0.0
 10
42.44722825312436
 20
80.6667162777801
 30
0.0
 10
42.42867434400415
 20
80.6389468565753
 30
0.0
 10
42.40695401364769
 20
80.60904687298765
 30
0.0
 10
42.38175112900108
 20
80.57711645082547
 30
0.0
 10
42.35358703744411
 20
80.54290548371975
 30
0.0
 10
42.32220663641347
 20
80.50643463843525
 30
0.0
 10
42.28738615362563
 20
80.46808072543779
 30
0.0
 10
42.2629467798286
 20
80.44188485824655
 30
0.0
 10
42.25028290861408
 20
80.42831081616113
 30
0.0
  0
SPLINE
  5
E6
330
1F
100
AcDbEntity
  8
0
  6
Continuous
 62
     7
370
    15
100
AcDbSpline
210
0.0
220
0.0
230
1.0
 70
     8
 71
     3
 72
    23
 73
    19
 74
     0
 42
0.000000001
 43
0.00000001
 40
0.0
 40
0.0
 40
0.0
 40
0.0
 40
0.0694754602496701
 40
0.1365167976177987
 40
0.2007888236092608
 40
0.2638296728558258
 40
0.3257350229654197
 40
0.387290692215291
 40
0.4495092187626028
 40
0.5129678195454414
 40
0.5762752154930609
 40
0.637580100263924
 40
0.6979026059171021
 40
0.7571720884269855
 40
0.8165985284886554
 40
0.8766531708928192
 40
0.9372896424102405
 40
1.0
 40
1.0
 40
1.0
 40
1.0
 10
42.11830925076151
 20
81.29620987131604
 30
0.0
 10
42.13281524900287
 20
81.29587027617148
 30
0.0
 10
42.16131901737002
 20
81.29520298384332
 30
0.0
 10
42.20291983830905
 20
81.28947247575718
 30
0.0
 10
42.24252316091873
 20
81.28049720749028
 30
0.0
 10
42.28005157266956
 20
81.26790477334805
 30
0.0
 10
42.31520565064739
 20
81.25097732608957
 30
0.0
 10
42.34824947998863
 20
81.23064313737056
 30
0.0
 10
42.37957645311499
 20
81.20712552253643
 30
0.0
 10
42.40777604096839
 20
81.17943732519137
 30
0.0
 10
42.43367046377496
 20
81.1498786858231
 30
0.0
 10
42.45600970902294
 20
81.11832224606493
 30
0.0
 10
42.47514027974054
 20
81.0857296291429
 30
0.0
 10
42.49108621826706
 20
81.05185230294988
 30
0.0
 10
42.50282469935416
 20
81.01637128923437
 30
0.0
 10
42.51173670060336
 20
80.97980315008397
 30
0.0
 10
42.51677414565809
 20
80.94176936735231
 30
0.0
 10
42.51754726703971
 20
80.91602671090212
 30
0.0
 10
42.51794032715041
 20
80.90293897120921
 30
0.0
  0
SPLINE
  5
E7
330
1F
100
AcDbEntity
  8
0
  6
Continuous
 62
     7
370
    15
100
AcDbSpline
210
0.0
220
0.0
230
1.0
 70
     8
 71
     3
 72
    23
 73
    19
 74
     0
 42
0.000000001
 43
0.00000001
 40
0.0
 40
0.0
 40
0.0
 40
0.0
 40
0.068790794390618
 40
0.135103289431127
 40
0.198978674310651
 40
0.2619042997808556
 40
0.323494969367969
 40
0.3851953779660511
 40
0.4469692387407742
 40
0.5097647767031322
 40
0.572250568847368
 40
0.6334051756611528
 40
0.6932511629217527
 40
0.7525831627856701
 40
0.8125792661534212
 40
0.8732750849201916
 40
0.9355499428950291
 40
1.0
 40
1.0
 40
1.0
 40
1.0
 10
41.68687729296237
 20
80.85523764909382
 30
0.0
 10
41.68765106805763
 20
80.87098825250605
 30
0.0
 10
41.68917074175199
 20
80.90192201843169
 30
0.0
 10
41.69628738680033
 20
80.94702361400515
 30
0.0
 10
41.70647039693431
 20
80.9901336123327
 30
0.0
 10
41.72086805961253
 20
81.03090587148195
 30
0.0
 10
41.73874870626955
 20
81.06970089683388
 30
0.0
 10
41.76019130590459
 20
81.10636459324101
 30
0.0
 10
41.78558898154508
 20
81.14075709611825
 30
0.0
 10
41.8143933125682
 20
81.17255957557815
 30
0.0
 10
41.84567788744911
 20
81.20173463954099
 30
0.0
 10
41.87943340623727
 20
81.22692873429213
 30
0.0
 10
41.91490459214608
 20
81.24821547317002
 30
0.0
 10
41.95198382925503
 20
81.2660110615975
 30
0.0
 10
41.99108945893375
 20
81.27936868193129
 30
0.0
 10
42.03186661055759
 20
81.28927983737708
 30
0.0
 10
42.07449443890282
 20
81.29524292043256
 30
0.0
 10
42.10353813771223
 20
81.29588388701514
 30
0.0
 10
42.11830925076151
 20
81.29620987131604
 30
0.0
  0
LINE
  5
E8
330
1F
100
AcDbEntity
  8
0
  6
Continuous
 62
     7
370
    15
100
AcDbLine
 10
41.805600594
 20
80.8552375993
 30
0.0
 11
41.6868773384
 21
80.8552375993
 31
0.0
  0
SPLINE
  5
E9
330
1F
100
AcDbEntity
  8
0
  6
Continuous
 62
     7
370
    15
100
AcDbSpline
210
0.0
220
0.0
230
1.0
 70
     8
 71
     3
 72
    23
 73
    19
 74
     0
 42
0.000000001
 43
0.00000001
 40
0.0
 40
0.0
 40
0.0
 40
0.0
 40
0.0644386715952432
 40
0.1265469112716779
 40
0.1868871534365706
 40
0.2458775355894558
 40
0.3040408846912673
 40
0.3621912180726605
 40
0.4209759327916447
 40
0.4806602832796664
 40
0.540600274953758
 40
0.6006890983494534
 40
0.6619357897571956
 40
0.724442505913983
 40
0.7890383938817438
 40
0.8563137570509944
 40
0.9263520282058639
 40
1.0
 40
1.0
 40
1.0
 40
1.0
 10
42.11221408182455
 20
81.16052611063228
 30
0.0
 10
42.10186855872915
 20
81.1602558454611
 30
0.0
 10
42.08155165956283
 20
81.1597250892895
 30
0.0
 10
42.05172214413741
 20
81.15601235617346
 30
0.0
 10
42.0232659127519
 20
81.1496072319758
 30
0.0
 10
41.9961113839572
 20
81.1408470008831
 30
0.0
 10
41.9702126119387
 20
81.12971237082228
 30
0.0
 10
41.9456955476746
 20
81.11584376494669
 30
0.0
 10
41.92261522941266
 20
81.09929464699914
 30
0.0
 10
41.90092826969576
 20
81.08053169862666
 30
0.0
 10
41.88094694427591
 20
81.05964186126229
 30
0.0
 10
41.86339113107697
 20
81.03635476212688
 30
0.0
 10
41.84805134001672
 20
81.01109559024555
 30
0.0
 10
41.83466749283835
 20
80.98393250119105
 30
0.0
 10
41.82379852664636
 20
80.95461901887549
 30
0.0
 10
41.81549319895365
 20
80.92325920186431
 30
0.0
 10
41.80892138486541
 20
80.88998921542773
 30
0.0
 10
41.80672590237489
 20
80.86701390061586
 30
0.0
 10
41.80560058356066
 20
80.85523764909382
 30
0.0
  0
SPLINE
  5
EA
330
1F
100
AcDbEntity
  8
0
  6
Continuous
 62
     7
370
    15
100
AcDbSpline
210
0.0
220
0.0
230
1.0
 70
     8
 71
     3
 72
    31
 73
    27
 74
     0
 42
0.000000001
 43
0.00000001
 40
0.0
 40
0.0
 40
0.0
 40
0.0
 40
0.065063289617279
 40
0.1267731664665229
 40
0.1855157632260791
 40
0.2407646791677153
 40
0.292979796023598
 40
0.3422503727797675
 40
0.3889192861856603
 40
0.4327756640583101
 40
0.4746284326311179
 40
0.5147746906379537
 40
0.5536058934984424
 40
0.5914264064311734
 40
0.6280281199460672
 40
0.6638036341103204
 40
0.698984336131664
 40
0.7335914893067053
 40
0.7676284691511401
 40
0.8012083477865922
 40
0.834263839726623
 40
0.866980694728776
 40
0.8997197415181607
 40
0.9327019124985385
 40
0.9661758834327495
 40
0.9999999999999999
 40
0.9999999999999999
 40
0.9999999999999999
 40
0.9999999999999999
 10
44.57015720749229
 20
80.6003005831216
 30
0.0
 10
44.56991092404861
 20
80.58006982029869
 30
0.0
 10
44.56943105080229
 20
80.5406510039711
 30
0.0
 10
44.56694445627997
 20
80.48299792699011
 30
0.0
 10
44.56204640223325
 20
80.42857009514809
 30
0.0
 10
44.55591941260464
 20
80.37723697392113
 30
0.0
 10
44.54743348314742
 20
80.32921221918369
 30
0.0
 10
44.5369993875703
 20
80.28432964491158
 30
0.0
 10
44.52541429531326
 20
80.24239542734757
 30
0.0
 10
44.51111364396819
 20
80.20375310272118
 30
0.0
 10
44.49546138142622
 20
80.1678636122336
 30
0.0
 10
44.47843159001469
 20
80.13434954128755
 30
0.0
 10
44.46018674503588
 20
80.10291466280448
 30
0.0
 10
44.44030945153772
 20
80.07381059179181
 30
0.0
 10
44.41912259595454
 20
80.0468311589101
 30
0.0
 10
44.39617271745243
 20
80.0224525932055
 30
0.0
 10
44.3721067522502
 20
80.00008748802895
 30
0.0
 10
44.34662646412248
 20
79.98018642645843
 30
0.0
 10
44.32001257422223
 20
79.96276746756314
 30
0.0
 10
44.29281375645598
 20
79.94718961339869
 30
0.0
 10
44.26454741810745
 20
79.9346284459245
 30
0.0
 10
44.23585412942695
 20
79.92384287984065
 30
0.0
 10
44.2063234672347
 20
79.91560282808607
 30
0.0
 10
44.17599224218243
 20
79.90990526960061
 30
0.0
 10
44.14501473634034
 20
79.90590936259537
 30
0.0
 10
44.12407426382451
 20
79.90560453240441
 30
0.0
 10
44.11354955191002
 20
79.90545132430749
 30
0.0
  0
SPLINE
  5
EB
330
1F
100
AcDbEntity
  8
0
  6
Continuous
 62
     7
370
    15
100
AcDbSpline
210
0.0
220
0.0
230
1.0
 70
     8
 71
     3
 72
    31
 73
    27
 74
     0
 42
0.000000001
 43
0.00000001
 40
0.0
 40
0.0
 40
0.0
 40
0.0
 40
0.0337881161627105
 40
0.0671939323738798
 40
0.0998624108568258
 40
0.1325666121262585
 40
0.1651511732547865
 40
0.1979131873557925
 40
0.2313190035669621
 40
0.2650832782673738
 40
0.299255308758115
 40
0.3343985665049786
 40
0.3699428235093079
 40
0.4062835607000611
 40
0.4440638196985082
 40
0.4829977068727755
 40
0.5233544466133047
 40
0.5655365896041491
 40
0.6096129240658194
 40
0.6563908113764172
 40
0.7058854949364572
 40
0.7583245002617309
 40
0.81383178294115
 40
0.8727945590393899
 40
0.9347222295400738
 40
0.9999999999999999
 40
0.9999999999999999
 40
0.9999999999999999
 40
0.9999999999999999
 10
44.11354955191002
 20
81.29620987131604
 30
0.0
 10
44.12407070002762
 20
81.29602548879429
 30
0.0
 10
44.14499395338997
 20
81.29565880997035
 30
0.0
 10
44.17592766665256
 20
81.29213458169089
 30
0.0
 10
44.20614674277684
 20
81.28628686552034
 30
0.0
 10
44.23552234877488
 20
81.27800125905604
 30
0.0
 10
44.26429578116002
 20
81.2677219407949
 30
0.0
 10
44.29224198285942
 20
81.25483782212565
 30
0.0
 10
44.31953454050389
 20
81.23984015500439
 30
0.0
 10
44.34573973846527
 20
81.2222174394748
 30
0.0
 10
44.3711452627181
 20
81.20256937674567
 30
0.0
 10
44.39512708205577
 20
81.18035848704918
 30
0.0
 10
44.41768737940392
 20
81.1558090395875
 30
0.0
 10
44.43910929542788
 20
81.1291836922256
 30
0.0
 10
44.45878507175022
 20
81.09997177027957
 30
0.0
 10
44.47752264881539
 20
81.06868134782006
 30
0.0
 10
44.49429422190917
 20
81.03476521737716
 30
0.0
 10
44.51044691163442
 20
80.99878926673486
 30
0.0
 10
44.52438931436026
 20
80.95975806236449
 30
0.0
 10
44.53696316301973
 20
80.91789162014484
 30
0.0
 10
44.54712277316563
 20
80.87269542451874
 30
0.0
 10
44.55558538503153
 20
80.82440660561255
 30
0.0
 10
44.56214134272525
 20
80.77284782474499
 30
0.0
 10
44.56691618065376
 20
80.71812960429858
 30
0.0
 10
44.5694384479164
 20
80.6602159447409
 30
0.0
 10
44.56991345105106
 20
80.62061997198644
 30
0.0
 10
44.57015720749229
 20
80.6003005831216
 30
0.0
  0
SPLINE
  5
EC
330
1F
100
AcDbEntity
  8
0
  6
Continuous
 62
     7
370
    15
100
AcDbSpline
210
0.0
220
0.0
230
1.0
 70
     8
 71
     3
 72
    31
 73
    27
 74
     0
 42
0.000000001
 43
0.00000001
 40
0.0
 40
0.0
 40
0.0
 40
0.0
 40
0.0685946222587425
 40
0.1332460424433008
 40
0.1943125864682564
 40
0.2512792231169663
 40
0.3045134392563466
 40
0.3542349066533251
 40
0.400480588773989
 40
0.4434107549384919
 40
0.4840148686163449
 40
0.5232523007732034
 40
0.5610423727283601
 40
0.5979002393644
 40
0.6335184888561957
 40
0.6683143511696511
 40
0.7024956712863817
 40
0.7366853535134584
 40
0.7702931693607891
 40
0.803437255019249
 40
0.8359129516660291
 40
0.8684602457892909
 40
0.9008465382431827
 40
0.9334665246307076
 40
0.9662575752981231
 40
1.0
 40
1.0
 40
1.0
 40
1.0
 10
43.67125229296237
 20
80.6003005831216
 30
0.0
 10
43.67137627601593
 20
80.62150406003305
 30
0.0
 10
43.67161711488455
 20
80.66269211955516
 30
0.0
 10
43.67429636922878
 20
80.72270893366971
 30
0.0
 10
43.67874716825788
 20
80.77901237623632
 30
0.0
 10
43.68484671097212
 20
80.8316051422687
 30
0.0
 10
43.69226939992568
 20
80.88050080921438
 30
0.0
 10
43.70217822968272
 20
80.92556870848912
 30
0.0
 10
43.71344675924254
 20
80.96701742884584
 30
0.0
 10
43.72650676108163
 20
81.00498213169244
 30
0.0
 10
43.74124321704988
 20
81.03997429920379
 30
0.0
 10
43.75728235726328
 20
81.07264096754994
 30
0.0
 10
43.77526071706028
 20
81.10293270983313
 30
0.0
 10
43.79415080022024
 20
81.13133300561685
 30
0.0
 10
43.81471726777003
 20
81.15737696168421
 30
0.0
 10
43.83637484630974
 20
81.18143237281471
 30
0.0
 10
43.85996882930355
 20
81.20294328147216
 30
0.0
 10
43.88469716874025
 20
81.22253994933796
 30
0.0
 10
43.91078374903117
 20
81.23971876749968
 30
0.0
 10
43.93748499486506
 20
81.25485018953599
 30
0.0
 10
43.96498469261417
 20
81.2677769250768
 30
0.0
 10
43.99335792245952
 20
81.27794086958325
 30
0.0
 10
44.02234966309044
 20
81.2863360408336
 30
0.0
 10
44.05206126270293
 20
81.29207710140238
 30
0.0
 10
44.08254177823838
 20
81.29568938526594
 30
0.0
 10
44.10311556460554
 20
81.29603472991774
 30
0.0
 10
44.11354955191002
 20
81.29620987131604
 30
0.0
  0
SPLINE
  5
ED
330
1F
100
AcDbEntity
  8
0
  6
Continuous
 62
     7
370
    15
100
AcDbSpline
210
0.0
220
0.0
230
1.0
 70
     8
 71
     3
 72
    31
 73
    27
 74
     0
 42
0.000000001
 43
0.00000001
 40
0.0
 40
0.0
 40
0.0
 40
0.0
 40
0.033787146346991
 40
0.0666216577242939
 40
0.099284878095972
 40
0.1313611650426503
 40
0.1635851875953429
 40
0.1961039269870678
 40
0.2289022543238169
 40
0.2621580559050073
 40
0.2959912222583163
 40
0.3302178457247997
 40
0.3650598258919536
 40
0.4009507373401074
 40
0.4376203820767375
 40
0.4757075294370916
 40
0.5153806916250481
 40
0.556413541493164
 40
0.599764829872731
 40
0.6464241555840872
 40
0.6964314445175664
 40
0.7497815178015574
 40
0.806573306975532
 40
0.8674355315653992
 40
0.931886753250874
 40
1.0
 40
1.0
 40
1.0
 40
1.0
 10
44.11354955191002
 20
79.90545132430749
 30
0.0
 10
44.10311585406441
 20
79.90562759556721
 30
0.0
 10
44.08254263845363
 20
79.90597516808523
 30
0.0
 10
44.05205794193336
 20
79.90957113207035
 30
0.0
 10
44.02246904218077
 20
79.91535246810598
 30
0.0
 10
43.99362992979155
 20
79.92344743453326
 30
0.0
 10
43.96539264581647
 20
79.93335601849773
 30
0.0
 10
43.93814196603883
 20
79.94626529771672
 30
0.0
 10
43.91157489512003
 20
79.9611326392566
 30
0.0
 10
43.88576231293462
 20
79.97806424200263
 30
0.0
 10
43.86118926397017
 20
79.99746261628033
 30
0.0
 10
43.83771746969975
 20
80.01891816587313
 30
0.0
 10
43.81593658450537
 20
80.04296630050044
 30
0.0
 10
43.79566417336429
 20
80.0692273011989
 30
0.0
 10
43.77639718169507
 20
80.09745956839014
 30
0.0
 10
43.75867411499404
 20
80.12804856653528
 30
0.0
 10
43.7422809647957
 20
80.16087300561915
 30
0.0
 10
43.72729666921563
 20
80.19614495399932
 30
0.0
 10
43.71401131127994
 20
80.23437910827965
 30
0.0
 10
43.70227601684421
 20
80.27601287515411
 30
0.0
 10
43.69301024899094
 20
80.3214137257091
 30
0.0
 10
43.68507919146928
 20
80.37021701625193
 30
0.0
 10
43.67868217764034
 20
80.42263246017752
 30
0.0
 10
43.67431491777299
 20
80.47868851324222
 30
0.0
 10
43.67161567072078
 20
80.53835024399704
 30
0.0
 10
43.6713756292227
 20
80.57927364083694
 30
0.0
 10
43.67125229296237
 20
80.6003005831216
 30
0.0
  0
SPLINE
  5
EE
330
1F
100
AcDbEntity
  8
0
  6
Continuous
 62
     7
370
    15
100
AcDbSpline
210
0.0
220
0.0
230
1.0
 70
     8
 71
     3
 72
    23
 73
    19
 74
     0
 42
0.000000001
 43
0.00000001
 40
0.0
 40
0.0
 40
0.0
 40
0.0
 40
0.0683846151037681
 40
0.1344755875434509
 40
0.1983910577839565
 40
0.2607534774484865
 40
0.321829222807649
 40
0.3830372384795246
 40
0.4446531231064264
 40
0.5073980112040047
 40
0.5698252379730248
 40
0.6307776406313128
 40
0.6909286865237168
 40
0.7509451326917356
 40
0.8110494767293276
 40
0.8723308525469933
 40
0.9350040935894052
 40
1.0
 40
1.0
 40
1.0
 40
1.0
 10
36.91250496390254
 20
83.60216606789723
 30
0.0
 10
36.91308689847546
 20
83.58942809480384
 30
0.0
 10
36.9142312493428
 20
83.56437938445796
 30
0.0
 10
36.91956643738487
 20
83.52772673728096
 30
0.0
 10
36.92797594413882
 20
83.49281181330839
 30
0.0
 10
36.93979490531468
 20
83.45989649684817
 30
0.0
 10
36.95410767122947
 20
83.42855088317424
 30
0.0
 10
36.97164036775273
 20
83.399007494201
 30
0.0
 10
36.99255740153835
 20
83.37140089564046
 30
0.0
 10
37.01588824624613
 20
83.34548415018115
 30
0.0
 10
37.04185789239977
 20
83.32240463628742
 30
0.0
 10
37.06917904983159
 20
83.30174756610361
 30
0.0
 10
37.09824298659834
 20
83.28443414114938
 30
0.0
 10
37.1288205360142
 20
83.27038102805803
 30
0.0
 10
37.16086225242287
 20
83.25937953359522
 30
0.0
 10
37.19437823093388
 20
83.25186997042043
 30
0.0
 10
37.22930251896081
 20
83.2468402008576
 30
0.0
 10
37.25310962676487
 20
83.24628092264193
 30
0.0
 10
37.2652297402113
 20
83.24599619610235
 30
0.0
  0
LINE
  5
EF
330
1F
100
AcDbEntity
  8
0
  6
Continuous
 62
     7
370
    15
100
AcDbLine
 10
37.7774890142
 20
83.6021660534
 30
0.0
 11
36.9125050122
 21
83.6021660534
 31
0.0
  0
SPLINE
  5
F0
330
1F
100
AcDbEntity
  8
0
  6
Continuous
 62
     7
370
    15
100
AcDbSpline
210
0.0
220
0.0
230
1.0
 70
     8
 71
     3
 72
    15
 73
    11
 74
     0
 42
0.000000001
 43
0.00000001
 40
0.0
 40
0.0
 40
0.0
 40
0.0
 40
0.1185218400132604
 40
0.236254763161746
 40
0.3561744339909311
 40
0.4772496548985579
 40
0.601539870821702
 40
0.7296183821680424
 40
0.8621582661414385
 40
1.0
 40
1.0
 40
1.0
 40
1.0
 10
37.67228102226258
 20
83.93766536677543
 30
0.0
 10
37.68064447811284
 20
83.92624913214432
 30
0.0
 10
37.69731572014634
 20
83.90349265275896
 30
0.0
 10
37.71819780855247
 20
83.8663862927834
 30
0.0
 10
37.73632456201356
 20
83.8275641336094
 30
0.0
 10
37.7508135085876
 20
83.7863986344128
 30
0.0
 10
37.76254570100415
 20
83.74337754309745
 30
0.0
 10
37.77103384380178
 20
83.6981933074465
 30
0.0
 10
37.77601164606337
 20
83.65085938261666
 30
0.0
 10
37.77699011202543
 20
83.61860797623112
 30
0.0
 10
37.77748893826151
 20
83.60216606789723
 30
0.0
  0
SPLINE
  5
F1
330
1F
100
AcDbEntity
  8
0
  6
Continuous
 62
     7
370
    15
100
AcDbSpline
210
0.0
220
0.0
230
1.0
 70
     8
 71
     3
 72
    15
 73
    11
 74
     0
 42
0.000000001
 43
0.00000001
 40
0.0
 40
0.0
 40
0.0
 40
0.0
 40
0.1320402344259815
 40
0.2590328407793701
 40
0.3818798239250169
 40
0.502258443714985
 40
0.6227521895274793
 40
0.7447426318590014
 40
0.8701089273418184
 40
1.0
 40
1.0
 40
1.0
 40
1.0
 10
37.28298523233203
 20
84.12794064054681
 30
0.0
 10
37.30280917838432
 20
84.1274288423047
 30
0.0
 10
37.34169924158137
 20
84.1264248108204
 30
0.0
 10
37.39840781113992
 20
84.11711664313304
 30
0.0
 10
37.45206558197521
 20
84.10235570733082
 30
0.0
 10
37.50265108211574
 20
84.08150888770709
 30
0.0
 10
37.55016944019791
 20
84.05461227140538
 30
0.0
 10
37.59431178631692
 20
84.02129675394085
 30
0.0
 10
37.63583304254814
 20
83.98258515549566
 30
0.0
 10
37.65998896372145
 20
83.95281453764665
 30
0.0
 10
37.67228102226258
 20
83.93766536677543
 30
0.0
  0
SPLINE
  5
F2
330
1F
100
AcDbEntity
  8
0
  6
Continuous
 62
     7
370
    15
100
AcDbSpline
210
0.0
220
0.0
230
1.0
 70
     8
 71
     3
 72
    15
 73
    11
 74
     0
 42
0.000000001
 43
0.00000001
 40
0.0
 40
0.0
 40
0.0
 40
0.0
 40
0.1288352544875544
 40
0.2535893349864763
 40
0.3746432573141701
 40
0.4953400422377924
 40
0.6163247746357905
 40
0.7397593354405149
 40
0.8668423203805463
 40
0.9999999999999999
 40
0.9999999999999999
 40
0.9999999999999999
 40
0.9999999999999999
 10
36.90508475824015
 20
83.94773564588868
 30
0.0
 10
36.91706950738459
 20
83.96204917714222
 30
0.0
 10
36.9406593592276
 20
83.99022282329462
 30
0.0
 10
36.9805571483048
 20
84.02724117857517
 30
0.0
 10
37.02375990108897
 20
84.05825177216889
 30
0.0
 10
37.06972620023992
 20
84.08395685041161
 30
0.0
 10
37.11899028418544
 20
84.10348825864995
 30
0.0
 10
37.17088992692882
 20
84.11804320788654
 30
0.0
 10
37.22601608600852
 20
84.12619918229495
 30
0.0
 10
37.26370228555153
 20
84.12735119083662
 30
0.0
 10
37.28298523233203
 20
84.12794064054681
 30
0.0
  0
SPLINE
  5
F3
330
1F
100
AcDbEntity
  8
0
  6
Continuous
 62
     7
370
    15
100
AcDbSpline
210
0.0
220
0.0
230
1.0
 70
     8
 71
     3
 72
    15
 73
    11
 74
     0
 42
0.000000001
 43
0.00000001
 40
0.0
 40
0.0
 40
0.0
 40
0.0
 40
0.1280448079611199
 40
0.2537679000244898
 40
0.3774284265813012
 40
0.5005508414825327
 40
0.6232958832424765
 40
0.7465783319335079
 40
0.8723475406047168
 40
1.0
 40
1.0
 40
1.0
 40
1.0
 10
36.79378167330425
 20
83.6249566995746
 30
0.0
 10
36.79418200350957
 20
83.63980920988124
 30
0.0
 10
36.79497540510965
 20
83.66924492391466
 30
0.0
 10
36.79997632772572
 20
83.71281255532938
 30
0.0
 10
36.80883922421273
 20
83.75515664304106
 30
0.0
 10
36.82100110856256
 20
83.79631237188644
 30
0.0
 10
36.83670649030444
 20
83.83621083324353
 30
0.0
 10
36.85591985887724
 20
83.87487630967252
 30
0.0
 10
36.87867114452954
 20
83.9122676571793
 30
0.0
 10
36.89623670871726
 20
83.93585455593195
 30
0.0
 10
36.90508475824015
 20
83.94773564588868
 30
0.0
  0
SPLINE
  5
F4
330
1F
100
AcDbEntity
  8
0
  6
Continuous
 62
     7
370
    15
100
AcDbSpline
210
0.0
220
0.0
230
1.0
 70
     8
 71
     3
 72
    23
 73
    19
 74
     0
 42
0.000000001
 43
0.00000001
 40
0.0
 40
0.0
 40
0.0
 40
0.0
 40
0.0715786576891421
 40
0.139629224692848
 40
0.2047966973966659
 40
0.2681349633966817
 40
0.3298137469867307
 40
0.39130139777456
 40
0.4534335150970542
 40
0.5165516903197667
 40
0.5796312707049233
 40
0.641118921492753
 40
0.7012940466987745
 40
0.7608103356761337
 40
0.819931721778144
 40
0.8789195754993825
 40
0.9389828222504467
 40
1.0
 40
1.0
 40
1.0
 40
1.0
 10
37.28007015153609
 20
83.12727290550407
 30
0.0
 10
37.26149565407478
 20
83.12770651046496
 30
0.0
 10
37.22526219059121
 20
83.12855234812754
 30
0.0
 10
37.17251948855748
 20
83.13584444033938
 30
0.0
 10
37.12286119648461
 20
83.14774024258371
 30
0.0
 10
37.07629010622892
 20
83.1643581704688
 30
0.0
 10
37.03292026671301
 20
83.18606433165769
 30
0.0
 10
36.99266547932874
 20
83.21250735007756
 30
0.0
 10
36.95531405139613
 20
83.24355138681995
 30
0.0
 10
36.92204299613864
 20
83.27946534016175
 30
0.0
 10
36.89209069523321
 20
83.31789869902043
 30
0.0
 10
36.86566040018288
 20
83.35794750059696
 30
0.0
 10
36.84356488308978
 20
83.3995109812761
 30
0.0
 10
36.8255911286408
 20
83.44232454244732
 30
0.0
 10
36.81107500408376
 20
83.4861183355425
 30
0.0
 10
36.8009578273615
 20
83.53129082477253
 30
0.0
 10
36.79512574999924
 20
83.57771975095854
 30
0.0
 10
36.79423204588244
 20
83.60912856535187
 30
0.0
 10
36.79378167330425
 20
83.6249566995746
 30
0.0
  0
SPLINE
  5
F5
330
1F
100
AcDbEntity
  8
0
  6
Continuous
 62
     7
370
    15
100
AcDbSpline
210
0.0
220
0.0
230
1.0
 70
     8
 71
     3
 72
    19
 73
    15
 74
     0
 42
0.000000001
 43
0.00000001
 40
0.0
 40
0.0
 40
0.0
 40
0.0
 40
0.0933698567361952
 40
0.1816607660710048
 40
0.2658742270426187
 40
0.3463547840343077
 40
0.4245998617178937
 40
0.501903183837377
 40
0.579992090987348
 40
0.6584434305294311
 40
0.7386722364878345
 40
0.821894148436244
 40
0.9088007920466156
 40
0.9999999999999999
 40
0.9999999999999999
 40
0.9999999999999999
 40
0.9999999999999999
 10
37.7266075280051
 20
83.39413530200514
 30
0.0
 10
37.71820262444714
 20
83.37922666191
 30
0.0
 10
37.70185001052585
 20
83.35022035221402
 30
0.0
 10
37.67372829926951
 20
83.31036961923797
 30
0.0
 10
37.64424915278907
 20
83.27451944092986
 30
0.0
 10
37.61208187916868
 20
83.24362757755472
 30
0.0
 10
37.57818887551641
 20
83.216696250496
 30
0.0
 10
37.54238218754683
 20
83.19313403698617
 30
0.0
 10
37.50447540227186
 20
83.17305650102212
 30
0.0
 10
37.46446672653721
 20
83.15614111102259
 30
0.0
 10
37.42202017000456
 20
83.14313514152347
 30
0.0
 10
37.3770328706472
 20
83.13394872468726
 30
0.0
 10
37.32941864471534
 20
83.12827028683427
 30
0.0
 10
37.29678184458675
 20
83.1276106651715
 30
0.0
 10
37.28007015153609
 20
83.12727290550407
 30
0.0
  0
LINE
  5
F6
330
1F
100
AcDbEntity
  8
0
  6
Continuous
 62
     7
370
    15
100
AcDbLine
 10
37.6211346222
 20
83.4495218469
 30
0.0
 11
37.7266076023
 21
83.3941353076
 31
0.0
  0
SPLINE
  5
F7
330
1F
100
AcDbEntity
  8
0
  6
Continuous
 62
     7
370
    15
100
AcDbSpline
210
0.0
220
0.0
230
1.0
 70
     8
 71
     3
 72
    19
 73
    15
 74
     0
 42
0.000000001
 43
0.00000001
 40
0.0
 40
0.0
 40
0.0
 40
0.0
 40
0.0825922633314363
 40
0.1638788940984966
 40
0.2456587396295034
 40
0.327725695354122
 40
0.4086099609103186
 40
0.4857490859539308
 40
0.5591690561972783
 40
0.6302684758575456
 40
0.7053060284320706
 40
0.792064966096608
 40
0.8897964374100897
 40
0.9999999999999999
 40
0.9999999999999999
 40
0.9999999999999999
 40
0.9999999999999999
 10
37.2652297402113
 20
83.24599619610235
 30
0.0
 10
37.27707972754973
 20
83.24622602704227
 30
0.0
 10
37.30059237560865
 20
83.24668205571544
 30
0.0
 10
37.33560841394964
 20
83.25111643870858
 30
0.0
 10
37.37005698531791
 20
83.25828675122011
 30
0.0
 10
37.40379551173142
 20
83.2680725510434
 30
0.0
 10
37.43613925408683
 20
83.28000784930994
 30
0.0
 10
37.46609218521117
 20
83.2944098222904
 30
0.0
 10
37.49363917147461
 20
83.31034142299383
 30
0.0
 10
37.5193857630117
 20
83.32856353231273
 30
0.0
 10
37.54435902537988
 20
83.35086722204304
 30
0.0
 10
37.56913252470926
 20
83.37869977134525
 30
0.0
 10
37.59569542642693
 20
83.41161678333489
 30
0.0
 10
37.61232244511281
 20
83.43639148446346
 30
0.0
 10
37.62113460466109
 20
83.449521837128
 30
0.0
  0
LINE
  5
F8
330
1F
100
AcDbEntity
  8
0
  6
Continuous
 62
     7
370
    15
100
AcDbLine
 10
39.2530498423
 20
83.9238850049
 30
0.0
 11
39.2530498423
 21
84.5010709481
 31
0.0
  0
SPLINE
  5
F9
330
1F
100
AcDbEntity
  8
0
  6
Continuous
 62
     7
370
    15
100
AcDbSpline
210
0.0
220
0.0
230
1.0
 70
     8
 71
     3
 72
    15
 73
    11
 74
     0
 42
0.000000001
 43
0.00000001
 40
0.0
 40
0.0
 40
0.0
 40
0.0
 40
0.1288840014739258
 40
0.252984971857837
 40
0.374210437182597
 40
0.4941015128996903
 40
0.6147527632399877
 40
0.738511070373329
 40
0.8662425140769306
 40
0.9999999999999999
 40
0.9999999999999999
 40
0.9999999999999999
 40
0.9999999999999999
 10
38.86189899435126
 20
84.12794064054681
 30
0.0
 10
38.88163570441486
 20
84.12734831555727
 30
0.0
 10
38.92037667290518
 20
84.12618564742857
 30
0.0
 10
38.97703474503096
 20
84.11646925275734
 30
0.0
 10
39.0306270859186
 20
84.10015471263264
 30
0.0
 10
39.08146223296801
 20
84.07781961523382
 30
0.0
 10
39.12923712328794
 20
84.04879075983685
 30
0.0
 10
39.17430195470099
 20
84.01373292091942
 30
0.0
 10
39.21587303211127
 20
83.97165391034558
 30
0.0
 10
39.24046863170238
 20
83.94005072632972
 30
0.0
 10
39.25304983569742
 20
83.923884984831
 30
0.0
  0
SPLINE
  5
FA
330
1F
100
AcDbEntity
  8
0
  6
Continuous
 62
     7
370
    15
100
AcDbSpline
210
0.0
220
0.0
230
1.0
 70
     8
 71
     3
 72
    23
 73
    19
 74
     0
 42
0.000000001
 43
0.00000001
 40
0.0
 40
0.0
 40
0.0
 40
0.0
 40
0.063774532305632
 40
0.1260788099895059
 40
0.1869040927472074
 40
0.2475739349176197
 40
0.3080033561644469
 40
0.3691318984609777
 40
0.4320332277442044
 40
0.4967907944370909
 40
0.5616108232295652
 40
0.6249138657484625
 40
0.6867263492419248
 40
0.7480788332577711
 40
0.8095822911398957
 40
0.8716307425688273
 40
0.9348858208285536
 40
1.0
 40
1.0
 40
1.0
 40
1.0
 10
38.3541449211675
 20
83.63025684647629
 30
0.0
 10
38.35461851451834
 20
83.64706306776593
 30
0.0
 10
38.35555478302449
 20
83.6802880606277
 30
0.0
 10
38.36252966076173
 20
83.72915233040213
 30
0.0
 10
38.37425864320136
 20
83.7762172682388
 30
0.0
 10
38.39071869276555
 20
83.8213313509454
 30
0.0
 10
38.41182562217125
 20
83.86454916751941
 30
0.0
 10
38.43750082172973
 20
83.90590128411732
 30
0.0
 10
38.46774614564863
 20
83.9455016218485
 30
0.0
 10
38.50261535901495
 20
83.98241902008061
 30
0.0
 10
38.54038832273714
 20
84.01652026416457
 30
0.0
 10
38.58079727757717
 20
84.04615701645979
 30
0.0
 10
38.62283702974307
 20
84.07175237300632
 30
0.0
 10
38.6671596557441
 20
84.0920321095864
 30
0.0
 10
38.71310912690891
 20
84.10843971755409
 30
0.0
 10
38.76109450670027
 20
84.11979146442542
 30
0.0
 10
38.81091614506872
 20
84.12648063048934
 30
0.0
 10
38.84474142034315
 20
84.12744929432027
 30
0.0
 10
38.86189899435126
 20
84.12794064054681
 30
0.0
  0
SPLINE
  5
FB
330
1F
100
AcDbEntity
  8
0
  6
Continuous
 62
     7
370
    15
100
AcDbSpline
210
0.0
220
0.0
230
1.0
 70
     8
 71
     3
 72
    23
 73
    19
 74
     0
 42
0.000000001
 43
0.00000001
 40
0.0
 40
0.0
 40
0.0
 40
0.0
 40
0.064619991340768
 40
0.1274334841444695
 40
0.1890041265579399
 40
0.249930070686047
 40
0.310668453740672
 40
0.3723289611368242
 40
0.4349391099970084
 40
0.499575544194034
 40
0.5641912077719239
 40
0.6267352169294786
 40
0.6881093335614016
 40
0.7492936065367515
 40
0.8103305278109454
 40
0.8719011702244159
 40
0.9350459146845316
 40
1.0
 40
1.0
 40
1.0
 40
1.0
 10
38.85818889152007
 20
83.12727290550407
 30
0.0
 10
38.84111648039884
 20
83.12773644502246
 30
0.0
 10
38.80744892974177
 20
83.12865056547719
 30
0.0
 10
38.75792305832319
 20
83.13574226952339
 30
0.0
 10
38.71026319022651
 20
83.14713092710834
 30
0.0
 10
38.66442428925017
 20
83.162968465696
 30
0.0
 10
38.62070297237478
 20
83.18397669292234
 30
0.0
 10
38.57872490012067
 20
83.20912770036657
 30
0.0
 10
38.53870754331582
 20
83.23907884745061
 30
0.0
 10
38.50126086043365
 20
83.2733189653102
 30
0.0
 10
38.46677733648205
 20
83.31050992772781
 30
0.0
 10
38.43651608165163
 20
83.3501768457431
 30
0.0
 10
38.41128500682559
 20
83.39214819275016
 30
0.0
 10
38.39018634536777
 20
83.43589256936882
 30
0.0
 10
38.37393475089166
 20
83.48174672050222
 30
0.0
 10
38.36260543080012
 20
83.52955207862232
 30
0.0
 10
38.3555219881484
 20
83.57925212010909
 30
0.0
 10
38.35460824556807
 20
83.61309592794584
 30
0.0
 10
38.3541449211675
 20
83.63025684647629
 30
0.0
  0
SPLINE
  5
FC
330
1F
100
AcDbEntity
  8
0
  6
Continuous
 62
     7
370
    15
100
AcDbSpline
210
0.0
220
0.0
230
1.0
 70
     8
 71
     3
 72
    15
 73
    11
 74
     0
 42
0.000000001
 43
0.00000001
 40
0.0
 40
0.0
 40
0.0
 40
0.0
 40
0.1342983790141679
 40
0.2620849753823011
 40
0.3862699121345002
 40
0.5071645966228003
 40
0.6273002357255065
 40
0.748144941602994
 40
0.8723701771613523
 40
1.0
 40
1.0
 40
1.0
 40
1.0
 10
39.25304983569742
 20
83.31145301033847
 30
0.0
 10
39.23966237614527
 20
83.29631899714609
 30
0.0
 10
39.21353658048852
 20
83.26678478009835
 30
0.0
 10
39.16990258649334
 20
83.22820014942475
 30
0.0
 10
39.12365032877425
 20
83.19630715289027
 30
0.0
 10
39.07500429370402
 20
83.17054810737255
 30
0.0
 10
39.02400841005888
 20
83.15119872893551
 30
0.0
 10
38.97077572230863
 20
83.1374456271231
 30
0.0
 10
38.91528451585052
 20
83.12860331442405
 30
0.0
 10
38.87739151270073
 20
83.12772035377714
 30
0.0
 10
38.85818889152007
 20
83.12727290550407
 30
0.0
  0
LINE
  5
FD
330
1F
100
AcDbEntity
  8
0
  6
Continuous
 62
     7
370
    15
100
AcDbLine
 10
39.2530498423
 20
83.1442333756
 30
0.0
 11
39.2530498423
 21
83.3114530132
 31
0.0
  0
LINE
  5
FE
330
1F
100
AcDbEntity
  8
0
  6
Continuous
 62
     7
370
    15
100
AcDbLine
 10
39.3717730979
 20
83.1442333756
 30
0.0
 11
39.2530498423
 21
83.1442333756
 31
0.0
  0
LINE
  5
FF
330
1F
100
AcDbEntity
  8
0
  6
Continuous
 62
     7
370
    15
100
AcDbLine
 10
39.3717730979
 20
84.5010709481
 30
0.0
 11
39.3717730979
 21
83.1442333756
 31
0.0
  0
LINE
  5
100
330
1F
100
AcDbEntity
  8
0
  6
Continuous
 62
     7
370
    15
100
AcDbLine
 10
39.2530498423
 20
84.5010709481
 30
0.0
 11
39.3717730979
 21
84.5010709481
 31
0.0
  0
LINE
  5
101
330
1F
100
AcDbEntity
  8
0
  6
Continuous
 62
     7
370
    15
100
AcDbLine
 10
42.2211321632
 20
83.9321002013
 30
0.0
 11
42.2211321632
 21
84.1109801431
 31
0.0
  0
SPLINE
  5
102
330
1F
100
AcDbEntity
  8
0
  6
Continuous
 62
     7
370
    15
100
AcDbSpline
210
0.0
220
0.0
230
1.0
 70
     8
 71
     3
 72
    15
 73
    11
 74
     0
 42
0.000000001
 43
0.00000001
 40
0.0
 40
0.0
 40
0.0
 40
0.0
 40
0.1298621417207367
 40
0.254653530897287
 40
0.3760145541937124
 40
0.4952552518176076
 40
0.6147977192994577
 40
0.7381055541683327
 40
0.8651963000723575
 40
1.0
 40
1.0
 40
1.0
 40
1.0
 10
41.82998125930852
 20
84.12794064054681
 30
0.0
 10
41.84971156318053
 20
84.12739720469617
 30
0.0
 10
41.88840175787552
 20
84.12633155264123
 30
0.0
 10
41.94499538042577
 20
84.11746320035101
 30
0.0
 10
41.99853362058575
 20
84.10248080353952
 30
0.0
 10
42.04942975959711
 20
84.08210127303659
 30
0.0
 10
42.09750103082939
 20
84.05501975936575
 30
0.0
 10
42.14229233740119
 20
84.02085828600264
 30
0.0
 10
42.18427244567527
 20
83.9798323016419
 30
0.0
 10
42.20860666305837
 20
83.94832025864312
 30
0.0
 10
42.22113210065468
 20
83.93210021252864
 30
0.0
  0
SPLINE
  5
103
330
1F
100
AcDbEntity
  8
0
  6
Continuous
 62
     7
370
    15
100
AcDbSpline
210
0.0
220
0.0
230
1.0
 70
     8
 71
     3
 72
    23
 73
    19
 74
     0
 42
0.000000001
 43
0.00000001
 40
0.0
 40
0.0
 40
0.0
 40
0.0
 40
0.063774532305632
 40
0.1260788099895059
 40
0.1869040927472074
 40
0.2475739349176197
 40
0.3080033561644469
 40
0.3691318984609777
 40
0.4320332277442044
 40
0.4967907944370909
 40
0.5616108232295652
 40
0.6249138657484625
 40
0.6867263492419248
 40
0.7480788332577711
 40
0.8095822911398957
 40
0.8716307425688273
 40
0.9348858208285536
 40
1.0
 40
1.0
 40
1.0
 40
1.0
 10
41.32222718612476
 20
83.63025684647629
 30
0.0
 10
41.3227007794756
 20
83.64706306776593
 30
0.0
 10
41.32363704798175
 20
83.6802880606277
 30
0.0
 10
41.33061192571899
 20
83.72915233040213
 30
0.0
 10
41.34234090815863
 20
83.7762172682388
 30
0.0
 10
41.35880095772281
 20
83.8213313509454
 30
0.0
 10
41.37990788712852
 20
83.86454916751941
 30
0.0
 10
41.405583086687
 20
83.90590128411732
 30
0.0
 10
41.4358284106059
 20
83.9455016218485
 30
0.0
 10
41.47069762397221
 20
83.98241902008061
 30
0.0
 10
41.5084705876944
 20
84.01652026416457
 30
0.0
 10
41.54887954253444
 20
84.04615701645979
 30
0.0
 10
41.59091929470034
 20
84.07175237300632
 30
0.0
 10
41.63524192070137
 20
84.0920321095864
 30
0.0
 10
41.68119139186618
 20
84.10843971755409
 30
0.0
 10
41.72917677165754
 20
84.11979146442542
 30
0.0
 10
41.77899841002599
 20
84.12648063048934
 30
0.0
 10
41.81282368530042
 20
84.12744929432027
 30
0.0
 10
41.82998125930852
 20
84.12794064054681
 30
0.0
  0
SPLINE
  5
104
330
1F
100
AcDbEntity
  8
0
  6
Continuous
 62
     7
370
    15
100
AcDbSpline
210
0.0
220
0.0
230
1.0
 70
     8
 71
     3
 72
    23
 73
    19
 74
     0
 42
0.000000001
 43
0.00000001
 40
0.0
 40
0.0
 40
0.0
 40
0.0
 40
0.064619991340768
 40
0.1274334841444695
 40
0.1890041265579399
 40
0.249930070686047
 40
0.310668453740672
 40
0.3723289611368242
 40
0.4349391099970084
 40
0.499575544194034
 40
0.5641912077719239
 40
0.6267352169294786
 40
0.6881093335614016
 40
0.7492936065367515
 40
0.8103305278109454
 40
0.8719011702244159
 40
0.9350459146845316
 40
1.0
 40
1.0
 40
1.0
 40
1.0
 10
41.82627115647733
 20
83.12727290550407
 30
0.0
 10
41.8091987453561
 20
83.12773644502246
 30
0.0
 10
41.77553119469903
 20
83.12865056547719
 30
0.0
 10
41.72600532328046
 20
83.13574226952339
 30
0.0
 10
41.67834545518377
 20
83.14713092710834
 30
0.0
 10
41.63250655420744
 20
83.162968465696
 30
0.0
 10
41.58878523733205
 20
83.18397669292234
 30
0.0
 10
41.54680716507793
 20
83.20912770036657
 30
0.0
 10
41.50678980827308
 20
83.23907884745061
 30
0.0
 10
41.46934312539091
 20
83.2733189653102
 30
0.0
 10
41.43485960143931
 20
83.31050992772781
 30
0.0
 10
41.40459834660889
 20
83.3501768457431
 30
0.0
 10
41.37936727178285
 20
83.39214819275016
 30
0.0
 10
41.35826861032503
 20
83.43589256936882
 30
0.0
 10
41.34201701584893
 20
83.48174672050222
 30
0.0
 10
41.33068769575739
 20
83.52955207862232
 30
0.0
 10
41.32360425310566
 20
83.57925212010909
 30
0.0
 10
41.32269051052533
 20
83.61309592794584
 30
0.0
 10
41.32222718612476
 20
83.63025684647629
 30
0.0
  0
SPLINE
  5
105
330
1F
100
AcDbEntity
  8
0
  6
Continuous
 62
     7
370
    15
100
AcDbSpline
210
0.0
220
0.0
230
1.0
 70
     8
 71
     3
 72
    15
 73
    11
 74
     0
 42
0.000000001
 43
0.00000001
 40
0.0
 40
0.0
 40
0.0
 40
0.0
 40
0.1342983790141676
 40
0.2620849753823008
 40
0.3862699121345
 40
0.5071645966228002
 40
0.6273002357255064
 40
0.748144941602994
 40
0.8723701771613523
 40
0.9999999999999999
 40
0.9999999999999999
 40
0.9999999999999999
 40
0.9999999999999999
 10
42.22113210065468
 20
83.31145301033847
 30
0.0
 10
42.20774464110253
 20
83.29631899714609
 30
0.0
 10
42.18161884544579
 20
83.26678478009835
 30
0.0
 10
42.13798485145062
 20
83.22820014942475
 30
0.0
 10
42.09173259373152
 20
83.19630715289027
 30
0.0
 10
42.04308655866129
 20
83.17054810737255
 30
0.0
 10
41.99209067501615
 20
83.15119872893551
 30
0.0
 10
41.9388579872659
 20
83.1374456271231
 30
0.0
 10
41.88336678080779
 20
83.12860331442405
 30
0.0
 10
41.845473777658
 20
83.12772035377714
 30
0.0
 10
41.82627115647733
 20
83.12727290550407
 30
0.0
  0
LINE
  5
106
330
1F
100
AcDbEntity
  8
0
  6
Continuous
 62
     7
370
    15
100
AcDbLine
 10
42.2211321632
 20
83.1442333756
 30
0.0
 11
42.2211321632
 21
83.3114530132
 31
0.0
  0
LINE
  5
107
330
1F
100
AcDbEntity
  8
0
  6
Continuous
 62
     7
370
    15
100
AcDbLine
 10
42.3398553023
 20
83.1442333756
 30
0.0
 11
42.2211321632
 21
83.1442333756
 31
0.0
  0
LINE
  5
108
330
1F
100
AcDbEntity
  8
0
  6
Continuous
 62
     7
370
    15
100
AcDbLine
 10
42.3398553023
 20
84.1109801431
 30
0.0
 11
42.3398553023
 21
83.1442333756
 31
0.0
  0
LINE
  5
109
330
1F
100
AcDbEntity
  8
0
  6
Continuous
 62
     7
370
    15
100
AcDbLine
 10
42.2211321632
 20
84.1109801431
 30
0.0
 11
42.3398553023
 21
84.1109801431
 31
0.0
  0
LINE
  5
10A
330
1F
100
AcDbEntity
  8
0
  6
Continuous
 62
     7
370
    15
100
AcDbLine
 10
43.8493373433
 20
83.1442333756
 30
0.0
 11
43.7306139713
 21
83.1442333756
 31
0.0
  0
LINE
  5
10B
330
1F
100
AcDbEntity
  8
0
  6
Continuous
 62
     7
370
    15
100
AcDbLine
 10
43.8493373433
 20
83.4937780628
 30
0.0
 11
43.8493373433
 21
83.1442333756
 31
0.0
  0
SPLINE
  5
10C
330
1F
100
AcDbEntity
  8
0
  6
Continuous
 62
     7
370
    15
100
AcDbSpline
210
0.0
220
0.0
230
1.0
 70
     8
 71
     3
 72
    15
 73
    11
 74
     0
 42
0.000000001
 43
0.00000001
 40
0.0
 40
0.0
 40
0.0
 40
0.0
 40
0.0769954547170576
 40
0.1676150771831734
 40
0.2710523936342343
 40
0.3894595025720741
 40
0.5208428024655765
 40
0.6663987586080736
 40
0.8260936125153155
 40
1.0
 40
1.0
 40
1.0
 40
1.0
 10
43.86762273567071
 20
83.75322025459596
 30
0.0
 10
43.86613364231025
 20
83.74669819867975
 30
0.0
 10
43.86289196396102
 20
83.7325000241277
 30
0.0
 10
43.85939070252627
 20
83.7091999013246
 30
0.0
 10
43.8562128392048
 20
83.6822464286341
 30
0.0
 10
43.85355303639362
 20
83.65167105879455
 30
0.0
 10
43.85192569147765
 20
83.61736674290191
 30
0.0
 10
43.85015132126856
 20
83.57947998277956
 30
0.0
 10
43.8495053368774
 20
83.5378597059307
 30
0.0
 10
43.84939483401958
 20
83.50888341135912
 30
0.0
 10
43.84933722885981
 20
83.49377806375728
 30
0.0
  0
SPLINE
  5
10D
330
1F
100
AcDbEntity
  8
0
  6
Continuous
 62
     7
370
    15
100
AcDbSpline
210
0.0
220
0.0
230
1.0
 70
     8
 71
     3
 72
    23
 73
    19
 74
     0
 42
0.000000001
 43
0.00000001
 40
0.0
 40
0.0
 40
0.0
 40
0.0
 40
0.0639861098164667
 40
0.1266268580894775
 40
0.1889843719814873
 40
0.2502301939603986
 40
0.312351162962322
 40
0.3745736184579387
 40
0.4381475308782041
 40
0.5029204126073704
 40
0.5679740951402718
 40
0.6307713337491905
 40
0.6929346089254588
 40
0.7543975343123296
 40
0.8152183520172955
 40
0.8761169254810909
 40
0.938014604793953
 40
1.0
 40
1.0
 40
1.0
 40
1.0
 10
44.19649685092178
 20
84.00921734994851
 30
0.0
 10
44.18694626813065
 20
84.00903743151915
 30
0.0
 10
44.16804591154963
 20
84.00868137759603
 30
0.0
 10
44.14001898764462
 20
84.00510901197427
 30
0.0
 10
44.11283336266366
 20
83.99926608381655
 30
0.0
 10
44.08621620033528
 20
83.9913782357142
 30
0.0
 10
44.06069986163186
 20
83.980544580383
 30
0.0
 10
44.03546454919173
 20
83.96824925294679
 30
0.0
 10
44.01146050441647
 20
83.95292299424996
 30
0.0
 10
43.98817588704945
 20
83.93584201531291
 30
0.0
 10
43.96651301034721
 20
83.9169132673543
 30
0.0
 10
43.94635616815032
 20
83.89693930071913
 30
0.0
 10
43.92838792835304
 20
83.87566846237954
 30
0.0
 10
43.91210899454045
 20
83.8534434822123
 30
0.0
 10
43.89805649618047
 20
83.82995912677887
 30
0.0
 10
43.8857900015855
 20
83.80544196331813
 30
0.0
 10
43.875382164566
 20
83.77985972254244
 30
0.0
 10
43.87021043259079
 20
83.76210426785106
 30
0.0
 10
43.86762273567071
 20
83.75322025459596
 30
0.0
  0
SPLINE
  5
10E
330
1F
100
AcDbEntity
  8
0
  6
Continuous
 62
     7
370
    15
100
AcDbSpline
210
0.0
220
0.0
230
1.0
 70
     8
 71
     3
 72
    15
 73
    11
 74
     0
 42
0.000000001
 43
0.00000001
 40
0.0
 40
0.0
 40
0.0
 40
0.0
 40
0.1355195283706055
 40
0.2608331631936787
 40
0.3784760291245026
 40
0.493177646474676
 40
0.6092809649289397
 40
0.7299810378566454
 40
0.8592613089300654
 40
1.0
 40
1.0
 40
1.0
 40
1.0
 10
44.4458687626472
 20
83.81894207617715
 30
0.0
 10
44.44185256472666
 20
83.83395195858296
 30
0.0
 10
44.43412262631687
 20
83.8628413382476
 30
0.0
 10
44.41502198388564
 20
83.90202777510154
 30
0.0
 10
44.39090174293327
 20
83.93536459014416
 30
0.0
 10
44.36145821058394
 20
83.96264567242481
 30
0.0
 10
44.32697579211273
 20
83.98387691129844
 30
0.0
 10
44.28755017564988
 20
83.99860813823395
 30
0.0
 10
44.24356182039577
 20
84.00782178760379
 30
0.0
 10
44.21262281265906
 20
84.00873918571672
 30
0.0
 10
44.19649685092178
 20
84.00921734994851
 30
0.0
  0
SPLINE
  5
10F
330
1F
100
AcDbEntity
  8
0
  6
Continuous
 62
     7
370
    15
100
AcDbSpline
210
0.0
220
0.0
230
1.0
 70
     8
 71
     3
 72
    15
 73
    11
 74
     0
 42
0.000000001
 43
0.00000001
 40
0.0
 40
0.0
 40
0.0
 40
0.0
 40
0.17885001941116
 40
0.3421096489422995
 40
0.489825663368392
 40
0.6232544282245641
 40
0.7400796760857922
 40
0.8414826730699851
 40
0.9289076721840648
 40
0.9999999999999999
 40
0.9999999999999999
 40
0.9999999999999999
 40
0.9999999999999999
 10
44.45991415193673
 20
83.59898597975621
 30
0.0
 10
44.45984112390576
 20
83.61214803483345
 30
0.0
 10
44.45970143371103
 20
83.63732480616765
 30
0.0
 10
44.45926084701777
 20
83.67337202624257
 30
0.0
 10
44.45819880702201
 20
83.70606189367457
 30
0.0
 10
44.4567064387472
 20
83.73531625575936
 30
0.0
 10
44.4545221028031
 20
83.76110702136516
 30
0.0
 10
44.45224569154878
 20
83.78348671822764
 30
0.0
 10
44.44946190567613
 20
83.80242693218288
 30
0.0
 10
44.44698128077012
 20
83.81382861510745
 30
0.0
 10
44.4458687626472
 20
83.81894207617715
 30
0.0
  0
LINE
  5
110
330
1F
100
AcDbEntity
  8
0
  6
Continuous
 62
     7
370
    15
100
AcDbLine
 10
44.4599140531
 20
83.1442333756
 30
0.0
 11
44.4599140531
 21
83.5989859943
 31
0.0
  0
LINE
  5
111
330
1F
100
AcDbEntity
  8
0
  6
Continuous
 62
     7
370
    15
100
AcDbLine
 10
44.5786376579
 20
83.1442333756
 30
0.0
 11
44.4599140531
 21
83.1442333756
 31
0.0
  0
LINE
  5
112
330
1F
100
AcDbEntity
  8
0
  6
Continuous
 62
     7
370
    15
100
AcDbLine
 10
44.5786376579
 20
83.6379420825
 30
0.0
 11
44.5786376579
 21
83.1442333756
 31
0.0
  0
SPLINE
  5
113
330
1F
100
AcDbEntity
  8
0
  6
Continuous
 62
     7
370
    15
100
AcDbSpline
210
0.0
220
0.0
230
1.0
 70
     8
 71
     3
 72
    23
 73
    19
 74
     0
 42
0.000000001
 43
0.00000001
 40
0.0
 40
0.0
 40
0.0
 40
0.0
 40
0.0772404236164777
 40
0.151178140466383
 40
0.223487983800399
 40
0.2955426441988695
 40
0.3669762546197894
 40
0.4371305254863863
 40
0.5070436156432693
 40
0.5785597335236778
 40
0.6166135446965532
 40
0.6587562369775289
 40
0.7044912261144043
 40
0.7548031149051498
 40
0.8093316253185656
 40
0.8682744554728209
 40
0.9320728834092938
 40
1.0
 40
1.0
 40
1.0
 40
1.0
 10
44.21716742383844
 20
84.12794064054681
 30
0.0
 10
44.23505727661463
 20
84.1272809982223
 30
0.0
 10
44.27007203377536
 20
84.12598991907849
 30
0.0
 10
44.32105272959537
 20
84.11577825309307
 30
0.0
 10
44.36866767304245
 20
84.0983364453525
 30
0.0
 10
44.41274708847426
 20
84.07444378778945
 30
0.0
 10
44.45248267209645
 20
84.0447324124255
 30
0.0
 10
44.48737926774369
 20
84.01011819134392
 30
0.0
 10
44.51624275707986
 20
83.97030365988284
 30
0.0
 10
44.53559414130891
 20
83.93336663356722
 30
0.0
 10
44.5483416331445
 20
83.90060033335102
 30
0.0
 10
44.55636695119288
 20
83.87253682959341
 30
0.0
 10
44.56318223287544
 20
83.84127133793129
 30
0.0
 10
44.56909066144165
 20
83.80689833849704
 30
0.0
 10
44.57308855789155
 20
83.76917699872905
 30
0.0
 10
44.57624174546438
 20
83.72826194845904
 30
0.0
 10
44.5785015495555
 20
83.68416644080148
 30
0.0
 10
44.5785912081487
 20
83.65366881675072
 30
0.0
 10
44.57863744253502
 20
83.63794205948378
 30
0.0
  0
SPLINE
  5
114
330
1F
100
AcDbEntity
  8
0
  6
Continuous
 62
     7
370
    15
100
AcDbSpline
210
0.0
220
0.0
230
1.0
 70
     8
 71
     3
 72
    15
 73
    11
 74
     0
 42
0.000000001
 43
0.00000001
 40
0.0
 40
0.0
 40
0.0
 40
0.0
 40
0.1409759662687709
 40
0.2735687809631692
 40
0.3989883138042533
 40
0.5199297813924313
 40
0.6381100215247449
 40
0.7565889007405945
 40
0.8768597544106068
 40
0.9999999999999999
 40
0.9999999999999999
 40
0.9999999999999999
 40
0.9999999999999999
 10
43.84933722885981
 20
83.9366053373951
 30
0.0
 10
43.86201365642462
 20
83.95242089037241
 30
0.0
 10
43.88661270637377
 20
83.98311152270342
 30
0.0
 10
43.92757940377252
 20
84.02344935892107
 30
0.0
 10
43.97087427085874
 20
84.05669056005407
 30
0.0
 10
44.01623217098633
 20
84.08318812502708
 30
0.0
 10
44.06371467778005
 20
84.10316289145827
 30
0.0
 10
44.11303235720062
 20
84.117588704696
 30
0.0
 10
44.16448047527548
 20
84.1262386250071
 30
0.0
 10
44.19946762849851
 20
84.12736886086438
 30
0.0
 10
44.21716742383844
 20
84.12794064054681
 30
0.0
  0
LINE
  5
115
330
1F
100
AcDbEntity
  8
0
  6
Continuous
 62
     7
370
    15
100
AcDbLine
 10
43.8493373433
 20
84.1109801431
 30
0.0
 11
43.8493373433
 21
83.9366053578
 31
0.0
  0
LINE
  5
116
330
1F
100
AcDbEntity
  8
0
  6
Continuous
 62
     7
370
    15
100
AcDbLine
 10
43.7306139713
 20
84.1109801431
 30
0.0
 11
43.8493373433
 21
84.1109801431
 31
0.0
  0
LINE
  5
117
330
1F
100
AcDbEntity
  8
0
  6
Continuous
 62
     7
370
    15
100
AcDbLine
 10
43.7306139713
 20
83.1442333756
 30
0.0
 11
43.7306139713
 21
84.1109801431
 31
0.0
  0
LINE
  5
118
330
1F
100
AcDbEntity
  8
0
  6
Continuous
 62
     7
370
    15
100
AcDbLine
 10
42.729946282
 20
83.1442333756
 30
0.0
 11
42.61122291
 21
83.1442333756
 31
0.0
  0
LINE
  5
119
330
1F
100
AcDbEntity
  8
0
  6
Continuous
 62
     7
370
    15
100
AcDbLine
 10
42.729946282
 20
83.4937780628
 30
0.0
 11
42.729946282
 21
83.1442333756
 31
0.0
  0
SPLINE
  5
11A
330
1F
100
AcDbEntity
  8
0
  6
Continuous
 62
     7
370
    15
100
AcDbSpline
210
0.0
220
0.0
230
1.0
 70
     8
 71
     3
 72
    15
 73
    11
 74
     0
 42
0.000000001
 43
0.00000001
 40
0.0
 40
0.0
 40
0.0
 40
0.0
 40
0.0769954547170576
 40
0.1676150771831734
 40
0.2710523936342343
 40
0.3894595025720741
 40
0.5208428024655765
 40
0.6663987586080736
 40
0.8260936125153155
 40
1.0
 40
1.0
 40
1.0
 40
1.0
 10
42.74823171002968
 20
83.75322025459596
 30
0.0
 10
42.74674261666922
 20
83.74669819867975
 30
0.0
 10
42.74350093831999
 20
83.7325000241277
 30
0.0
 10
42.73999967688524
 20
83.7091999013246
 30
0.0
 10
42.73682181356377
 20
83.6822464286341
 30
0.0
 10
42.73416201075259
 20
83.65167105879455
 30
0.0
 10
42.73253466583662
 20
83.61736674290191
 30
0.0
 10
42.73076029562753
 20
83.57947998277956
 30
0.0
 10
42.73011431123637
 20
83.5378597059307
 30
0.0
 10
42.73000380837855
 20
83.50888341135912
 30
0.0
 10
42.72994620321878
 20
83.49377806375728
 30
0.0
  0
SPLINE
  5
11B
330
1F
100
AcDbEntity
  8
0
  6
Continuous
 62
     7
370
    15
100
AcDbSpline
210
0.0
220
0.0
230
1.0
 70
     8
 71
     3
 72
    23
 73
    19
 74
     0
 42
0.000000001
 43
0.00000001
 40
0.0
 40
0.0
 40
0.0
 40
0.0
 40
0.0639861098164667
 40
0.1266268580894775
 40
0.1889843719814873
 40
0.2502301939603986
 40
0.312351162962322
 40
0.3745736184579387
 40
0.4381475308782041
 40
0.5029204126073704
 40
0.5679740951402718
 40
0.6307713337491905
 40
0.6929346089254588
 40
0.7543975343123296
 40
0.8152183520172955
 40
0.8761169254810909
 40
0.938014604793953
 40
1.0
 40
1.0
 40
1.0
 40
1.0
 10
43.07710582528075
 20
84.00921734994851
 30
0.0
 10
43.06755524248962
 20
84.00903743151915
 30
0.0
 10
43.0486548859086
 20
84.00868137759603
 30
0.0
 10
43.02062796200359
 20
84.00510901197427
 30
0.0
 10
42.99344233702264
 20
83.99926608381655
 30
0.0
 10
42.96682517469425
 20
83.9913782357142
 30
0.0
 10
42.94130883599083
 20
83.980544580383
 30
0.0
 10
42.9160735235507
 20
83.96824925294679
 30
0.0
 10
42.89206947877544
 20
83.95292299424996
 30
0.0
 10
42.86878486140842
 20
83.93584201531291
 30
0.0
 10
42.84712198470618
 20
83.9169132673543
 30
0.0
 10
42.82696514250929
 20
83.89693930071913
 30
0.0
 10
42.80899690271201
 20
83.87566846237954
 30
0.0
 10
42.79271796889942
 20
83.8534434822123
 30
0.0
 10
42.77866547053945
 20
83.82995912677887
 30
0.0
 10
42.76639897594447
 20
83.80544196331813
 30
0.0
 10
42.75599113892497
 20
83.77985972254244
 30
0.0
 10
42.75081940694976
 20
83.76210426785106
 30
0.0
 10
42.74823171002968
 20
83.75322025459596
 30
0.0
  0
SPLINE
  5
11C
330
1F
100
AcDbEntity
  8
0
  6
Continuous
 62
     7
370
    15
100
AcDbSpline
210
0.0
220
0.0
230
1.0
 70
     8
 71
     3
 72
    15
 73
    11
 74
     0
 42
0.000000001
 43
0.00000001
 40
0.0
 40
0.0
 40
0.0
 40
0.0
 40
0.1355195283706059
 40
0.2608331631936791
 40
0.3784760291245036
 40
0.493177646474677
 40
0.6092809649289386
 40
0.7299810378566454
 40
0.8592613089300666
 40
1.0
 40
1.0
 40
1.0
 40
1.0
 10
43.32647773700617
 20
83.81894207617715
 30
0.0
 10
43.32246153908563
 20
83.83395195858296
 30
0.0
 10
43.31473160067584
 20
83.8628413382476
 30
0.0
 10
43.29563095824461
 20
83.90202777510154
 30
0.0
 10
43.27151071729224
 20
83.93536459014416
 30
0.0
 10
43.24206718494291
 20
83.96264567242481
 30
0.0
 10
43.2075847664717
 20
83.98387691129844
 30
0.0
 10
43.16815915000885
 20
83.99860813823395
 30
0.0
 10
43.12417079475474
 20
84.00782178760379
 30
0.0
 10
43.09323178701803
 20
84.00873918571672
 30
0.0
 10
43.07710582528075
 20
84.00921734994851
 30
0.0
  0
SPLINE
  5
11D
330
1F
100
AcDbEntity
  8
0
  6
Continuous
 62
     7
370
    15
100
AcDbSpline
210
0.0
220
0.0
230
1.0
 70
     8
 71
     3
 72
    15
 73
    11
 74
     0
 42
0.000000001
 43
0.00000001
 40
0.0
 40
0.0
 40
0.0
 40
0.0
 40
0.1788500194111601
 40
0.3421096489422997
 40
0.4898256633683923
 40
0.6232544282245646
 40
0.7400796760857924
 40
0.8414826730699856
 40
0.9289076721840652
 40
1.0
 40
1.0
 40
1.0
 40
1.0
 10
43.3405231262957
 20
83.59898597975621
 30
0.0
 10
43.34045009826473
 20
83.61214803483345
 30
0.0
 10
43.34031040807
 20
83.63732480616765
 30
0.0
 10
43.33986982137674
 20
83.67337202624257
 30
0.0
 10
43.33880778138098
 20
83.70606189367457
 30
0.0
 10
43.33731541310616
 20
83.73531625575936
 30
0.0
 10
43.33513107716207
 20
83.76110702136516
 30
0.0
 10
43.33285466590775
 20
83.78348671822764
 30
0.0
 10
43.33007088003511
 20
83.80242693218288
 30
0.0
 10
43.32759025512909
 20
83.81382861510745
 30
0.0
 10
43.32647773700617
 20
83.81894207617715
 30
0.0
  0
LINE
  5
11E
330
1F
100
AcDbEntity
  8
0
  6
Continuous
 62
     7
370
    15
100
AcDbLine
 10
43.3405232245
 20
83.1442333756
 30
0.0
 11
43.3405232245
 21
83.5989859943
 31
0.0
  0
LINE
  5
11F
330
1F
100
AcDbEntity
  8
0
  6
Continuous
 62
     7
370
    15
100
AcDbLine
 10
43.4592463637
 20
83.1442333756
 30
0.0
 11
43.3405232245
 21
83.1442333756
 31
0.0
  0
LINE
  5
120
330
1F
100
AcDbEntity
  8
0
  6
Continuous
 62
     7
370
    15
100
AcDbLine
 10
43.4592463637
 20
83.6379420825
 30
0.0
 11
43.4592463637
 21
83.1442333756
 31
0.0
  0
SPLINE
  5
121
330
1F
100
AcDbEntity
  8
0
  6
Continuous
 62
     7
370
    15
100
AcDbSpline
210
0.0
220
0.0
230
1.0
 70
     8
 71
     3
 72
    23
 73
    19
 74
     0
 42
0.000000001
 43
0.00000001
 40
0.0
 40
0.0
 40
0.0
 40
0.0
 40
0.0772404236164784
 40
0.151178140466383
 40
0.223487983800399
 40
0.2955426441988695
 40
0.3669762546197894
 40
0.4371305254863863
 40
0.5070436156432693
 40
0.5785597335236778
 40
0.6166135446965532
 40
0.6587562369775289
 40
0.7044912261144043
 40
0.7548031149051498
 40
0.8093316253185656
 40
0.8682744554728209
 40
0.9320728834092938
 40
1.0
 40
1.0
 40
1.0
 40
1.0
 10
43.09777639819741
 20
84.12794064054681
 30
0.0
 10
43.1156662509736
 20
84.1272809982223
 30
0.0
 10
43.15068100813433
 20
84.12598991907849
 30
0.0
 10
43.20166170395434
 20
84.11577825309307
 30
0.0
 10
43.24927664740142
 20
84.0983364453525
 30
0.0
 10
43.29335606283323
 20
84.07444378778945
 30
0.0
 10
43.33309164645542
 20
84.0447324124255
 30
0.0
 10
43.36798824210266
 20
84.01011819134392
 30
0.0
 10
43.39685173143884
 20
83.97030365988284
 30
0.0
 10
43.41620311566788
 20
83.93336663356722
 30
0.0
 10
43.42895060750347
 20
83.90060033335102
 30
0.0
 10
43.43697592555186
 20
83.87253682959341
 30
0.0
 10
43.4437912072344
 20
83.84127133793129
 30
0.0
 10
43.44969963580062
 20
83.80689833849704
 30
0.0
 10
43.45369753225052
 20
83.76917699872905
 30
0.0
 10
43.45685071982335
 20
83.72826194845904
 30
0.0
 10
43.45911052391446
 20
83.68416644080148
 30
0.0
 10
43.45920018250767
 20
83.65366881675072
 30
0.0
 10
43.45924641689399
 20
83.63794205948378
 30
0.0
  0
SPLINE
  5
122
330
1F
100
AcDbEntity
  8
0
  6
Continuous
 62
     7
370
    15
100
AcDbSpline
210
0.0
220
0.0
230
1.0
 70
     8
 71
     3
 72
    15
 73
    11
 74
     0
 42
0.000000001
 43
0.00000001
 40
0.0
 40
0.0
 40
0.0
 40
0.0
 40
0.1409759662687709
 40
0.2735687809631692
 40
0.3989883138042533
 40
0.5199297813924313
 40
0.6381100215247449
 40
0.7565889007405945
 40
0.8768597544106068
 40
0.9999999999999999
 40
0.9999999999999999
 40
0.9999999999999999
 40
0.9999999999999999
 10
42.72994620321878
 20
83.9366053373951
 30
0.0
 10
42.74262263078359
 20
83.95242089037241
 30
0.0
 10
42.76722168073274
 20
83.98311152270342
 30
0.0
 10
42.80818837813149
 20
84.02344935892107
 30
0.0
 10
42.85148324521771
 20
84.05669056005407
 30
0.0
 10
42.8968411453453
 20
84.08318812502708
 30
0.0
 10
42.94432365213903
 20
84.10316289145827
 30
0.0
 10
42.9936413315596
 20
84.117588704696
 30
0.0
 10
43.04508944963445
 20
84.1262386250071
 30
0.0
 10
43.08007660285748
 20
84.12736886086438
 30
0.0
 10
43.09777639819741
 20
84.12794064054681
 30
0.0
  0
LINE
  5
123
330
1F
100
AcDbEntity
  8
0
  6
Continuous
 62
     7
370
    15
100
AcDbLine
 10
42.729946282
 20
84.1109801431
 30
0.0
 11
42.729946282
 21
83.9366053578
 31
0.0
  0
LINE
  5
124
330
1F
100
AcDbEntity
  8
0
  6
Continuous
 62
     7
370
    15
100
AcDbLine
 10
42.61122291
 20
84.1109801431
 30
0.0
 11
42.729946282
 21
84.1109801431
 31
0.0
  0
LINE
  5
125
330
1F
100
AcDbEntity
  8
0
  6
Continuous
 62
     7
370
    15
100
AcDbLine
 10
42.61122291
 20
83.1442333756
 30
0.0
 11
42.61122291
 21
84.1109801431
 31
0.0
  0
LINE
  5
126
330
1F
100
AcDbEntity
  8
0
  6
Continuous
 62
     7
370
    15
100
AcDbLine
 10
39.7618639611
 20
83.1442333756
 30
0.0
 11
39.6431406473
 21
83.1442333756
 31
0.0
  0
LINE
  5
127
330
1F
100
AcDbEntity
  8
0
  6
Continuous
 62
     7
370
    15
100
AcDbLine
 10
39.7618639611
 20
83.5510196512
 30
0.0
 11
39.7618639611
 21
83.1442333756
 31
0.0
  0
SPLINE
  5
128
330
1F
100
AcDbEntity
  8
0
  6
Continuous
 62
     7
370
    15
100
AcDbSpline
210
0.0
220
0.0
230
1.0
 70
     8
 71
     3
 72
    23
 73
    19
 74
     0
 42
0.000000001
 43
0.00000001
 40
0.0
 40
0.0
 40
0.0
 40
0.0
 40
0.0686770684130349
 40
0.1368709585090958
 40
0.2061143571452995
 40
0.2775381819697278
 40
0.3497719775548986
 40
0.4212508361555695
 40
0.4929107569233712
 40
0.5670265889927393
 40
0.6066141532413348
 40
0.649703953518988
 40
0.6973031504846854
 40
0.7490856597091364
 40
0.8048806474593089
 40
0.8654850057023366
 40
0.9302371271531362
 40
1.0
 40
1.0
 40
1.0
 40
1.0
 10
40.07457260546237
 20
84.00921734994851
 30
0.0
 10
40.06020338268105
 20
84.0086388725016
 30
0.0
 10
40.03156603195313
 20
84.00748598749263
 30
0.0
 10
39.9894965374704
 20
83.99710892565102
 30
0.0
 10
39.94886950824585
 20
83.98085440929881
 30
0.0
 10
39.91033305959478
 20
83.95830441815616
 30
0.0
 10
39.87492646187189
 20
83.93037232594843
 30
0.0
 10
39.84392928941242
 20
83.89752056474894
 30
0.0
 10
39.81787065625299
 20
83.86015798362976
 30
0.0
 10
39.80058511907275
 20
83.82532199078015
 30
0.0
 10
39.78943539819942
 20
83.79448923508986
 30
0.0
 10
39.78202882824696
 20
83.76827622808213
 30
0.0
 10
39.77566385063344
 20
83.73917196757071
 30
0.0
 10
39.77093384838216
 20
83.70708666070252
 30
0.0
 10
39.7663677389114
 20
83.67222928285963
 30
0.0
 10
39.76416402089704
 20
83.63442618704678
 30
0.0
 10
39.7620203054399
 20
83.59370980270702
 30
0.0
 10
39.76191733916949
 20
83.56559875138052
 30
0.0
 10
39.76186393826152
 20
83.55101965029574
 30
0.0
  0
SPLINE
  5
129
330
1F
100
AcDbEntity
  8
0
  6
Continuous
 62
     7
370
    15
100
AcDbSpline
210
0.0
220
0.0
230
1.0
 70
     8
 71
     3
 72
    23
 73
    19
 74
     0
 42
0.000000001
 43
0.00000001
 40
0.0
 40
0.0
 40
0.0
 40
0.0
 40
0.0825297038220665
 40
0.1587788549175701
 40
0.2277380621151794
 40
0.289945652796676
 40
0.3454988386981375
 40
0.3938963373401232
 40
0.4363737851900879
 40
0.4721222744615227
 40
0.5363836155048269
 40
0.5990779017254959
 40
0.661948234024458
 40
0.7263105423531546
 40
0.7917711030502105
 40
0.8586473037978581
 40
0.9273053338076842
 40
1.0
 40
1.0
 40
1.0
 40
1.0
 10
40.30459898099656
 20
83.63582200072308
 30
0.0
 10
40.30456895797875
 20
83.64969120156591
 30
0.0
 10
40.30451119671017
 20
83.67637414996463
 30
0.0
 10
40.30349961248644
 20
83.7146380689065
 30
0.0
 10
40.30157699059536
 20
83.74944252477499
 30
0.0
 10
40.299354283326
 20
83.78074706616441
 30
0.0
 10
40.29615653727896
 20
83.80849480054715
 30
0.0
 10
40.29252427600532
 20
83.83283448586357
 30
0.0
 10
40.28823477143123
 20
83.85370510308849
 30
0.0
 10
40.28113264242269
 20
83.87659662058138
 30
0.0
 10
40.2702792570871
 20
83.90181554087594
 30
0.0
 10
40.25282119377621
 20
83.92870515304907
 30
0.0
 10
40.23104690000122
 20
83.95224101133887
 30
0.0
 10
40.20550671775482
 20
83.972333752563
 30
0.0
 10
40.17677837954601
 20
83.98894258626808
 30
0.0
 10
40.14503465364503
 20
84.00090921863976
 30
0.0
 10
40.11056136813838
 20
84.00787316144346
 30
0.0
 10
40.08679509239303
 20
84.00876083727029
 30
0.0
 10
40.07457260546237
 20
84.00921734994851
 30
0.0
  0
LINE
  5
12A
330
1F
100
AcDbEntity
  8
0
  6
Continuous
 62
     7
370
    15
100
AcDbLine
 10
40.3045989799
 20
83.1442333756
 30
0.0
 11
40.3045989799
 21
83.6358219849
 31
0.0
  0
LINE
  5
12B
330
1F
100
AcDbEntity
  8
0
  6
Continuous
 62
     7
370
    15
100
AcDbLine
 10
40.4233222719
 20
83.1442333756
 30
0.0
 11
40.3045989799
 21
83.1442333756
 31
0.0
  0
LINE
  5
12C
330
1F
100
AcDbEntity
  8
0
  6
Continuous
 62
     7
370
    15
100
AcDbLine
 10
40.4233222719
 20
83.5202787884
 30
0.0
 11
40.4233222719
 21
83.1442333756
 31
0.0
  0
SPLINE
  5
12D
330
1F
100
AcDbEntity
  8
0
  6
Continuous
 62
     7
370
    15
100
AcDbSpline
210
0.0
220
0.0
230
1.0
 70
     8
 71
     3
 72
    23
 73
    19
 74
     0
 42
0.000000001
 43
0.00000001
 40
0.0
 40
0.0
 40
0.0
 40
0.0
 40
0.0681582441559977
 40
0.1347066022023566
 40
0.2018649976035981
 40
0.2707882662774627
 40
0.3400242943604918
 40
0.4080827390537216
 40
0.4768131952581442
 40
0.547346064307095
 40
0.5856397954238958
 40
0.6288649531777641
 40
0.6771532033637911
 40
0.7308028113651058
 40
0.789806615532502
 40
0.8543250087420141
 40
0.9243651340575436
 40
1.0
 40
1.0
 40
1.0
 40
1.0
 10
40.73682596083096
 20
84.00921734994851
 30
0.0
 10
40.72183166260057
 20
84.00868207617442
 30
0.0
 10
40.69219722890826
 20
84.00762417170158
 30
0.0
 10
40.64893956001413
 20
83.9968239280518
 30
0.0
 10
40.60737313409424
 20
83.98054061902275
 30
0.0
 10
40.56873824754225
 20
83.95694263671714
 30
0.0
 10
40.53319798144604
 20
83.92866685633258
 30
0.0
 10
40.5026198672235
 20
83.89504602698308
 30
0.0
 10
40.47735889228587
 20
83.85701031055223
 30
0.0
 10
40.46025396685586
 20
83.82180307485555
 30
0.0
 10
40.44944789168296
 20
83.79017801719809
 30
0.0
 10
40.44231286698177
 20
83.76254895099646
 30
0.0
 10
40.43676289461073
 20
83.73114609648809
 30
0.0
 10
40.43155796243862
 20
83.69618046750072
 30
0.0
 10
40.42816081526074
 20
83.65741138147483
 30
0.0
 10
40.42507336500719
 20
83.61501817633501
 30
0.0
 10
40.42362916983644
 20
83.56887334642916
 30
0.0
 10
40.42342715715058
 20
83.5368864730543
 30
0.0
 10
40.42332227159485
 20
83.52027879826584
 30
0.0
  0
SPLINE
  5
12E
330
1F
100
AcDbEntity
  8
0
  6
Continuous
 62
     7
370
    15
100
AcDbSpline
210
0.0
220
0.0
230
1.0
 70
     8
 71
     3
 72
    23
 73
    19
 74
     0
 42
0.000000001
 43
0.00000001
 40
0.0
 40
0.0
 40
0.0
 40
0.0
 40
0.078342985193701
 40
0.1505633028794202
 40
0.216151056659977
 40
0.2756797924514263
 40
0.3287070503654625
 40
0.3759044348322083
 40
0.4173018977400331
 40
0.4526927480535834
 40
0.5172652917530132
 40
0.5812165680623068
 40
0.645321893972802
 40
0.712024493379763
 40
0.7801300447160445
 40
0.8502182262116653
 40
0.922648521734738
 40
1.0
 40
1.0
 40
1.0
 40
1.0
 10
40.96605731432989
 20
83.6684179041686
 30
0.0
 10
40.9660278764193
 20
83.68078550205567
 30
0.0
 10
40.96597130123219
 20
83.704554144289
 30
0.0
 10
40.96495317263501
 20
83.73866742197762
 30
0.0
 10
40.96303482476277
 20
83.76976290224506
 30
0.0
 10
40.96079167260974
 20
83.7977981855612
 30
0.0
 10
40.95767570894507
 20
83.82283865026083
 30
0.0
 10
40.95365180022392
 20
83.8448339989458
 30
0.0
 10
40.94938910573839
 20
83.86395725502557
 30
0.0
 10
40.94230734719428
 20
83.88515644563559
 30
0.0
 10
40.93098775720853
 20
83.90854191209803
 30
0.0
 10
40.91374543588652
 20
83.93376183509203
 30
0.0
 10
40.8920231040543
 20
83.9557149946851
 30
0.0
 10
40.86694054487717
 20
83.97477191800625
 30
0.0
 10
40.83838503155546
 20
83.99026653830217
 30
0.0
 10
40.80691294869257
 20
84.00133217292188
 30
0.0
 10
40.77271969109587
 20
84.00818218946465
 30
0.0
 10
40.74904976809538
 20
84.00886482035214
 30
0.0
 10
40.73682596083096
 20
84.00921734994851
 30
0.0
  0
LINE
  5
12F
330
1F
100
AcDbEntity
  8
0
  6
Continuous
 62
     7
370
    15
100
AcDbLine
 10
40.966057298
 20
83.1442333756
 30
0.0
 11
40.966057298
 21
83.6684179257
 31
0.0
  0
LINE
  5
130
330
1F
100
AcDbEntity
  8
0
  6
Continuous
 62
     7
370
    15
100
AcDbLine
 10
41.0847806118
 20
83.1442333756
 30
0.0
 11
40.966057298
 21
83.1442333756
 31
0.0
  0
LINE
  5
131
330
1F
100
AcDbEntity
  8
0
  6
Continuous
 62
     7
370
    15
100
AcDbLine
 10
41.0847806118
 20
83.6678878868
 30
0.0
 11
41.0847806118
 21
83.1442333756
 31
0.0
  0
SPLINE
  5
132
330
1F
100
AcDbEntity
  8
0
  6
Continuous
 62
     7
370
    15
100
AcDbSpline
210
0.0
220
0.0
230
1.0
 70
     8
 71
     3
 72
    23
 73
    19
 74
     0
 42
0.000000001
 43
0.00000001
 40
0.0
 40
0.0
 40
0.0
 40
0.0
 40
0.0756043304957459
 40
0.1479650154827365
 40
0.2187969985237005
 40
0.2894704453213774
 40
0.3597242180875002
 40
0.4297077387530454
 40
0.5004965198485857
 40
0.5744290198679488
 40
0.6139472962286696
 40
0.6571552698261109
 40
0.7039727697209368
 40
0.7549389848168006
 40
0.8097066112894875
 40
0.8688329536985496
 40
0.9323854739325979
 40
1.0
 40
1.0
 40
1.0
 40
1.0
 10
40.75749653374763
 20
84.12794064054681
 30
0.0
 10
40.77370470570583
 20
84.12732936956785
 30
0.0
 10
40.80542567193908
 20
84.1261330529115
 30
0.0
 10
40.85160576939601
 20
84.11673903174007
 30
0.0
 10
40.89467305890849
 20
84.10060789726404
 30
0.0
 10
40.93454088232647
 20
84.0785969691556
 30
0.0
 10
40.97050902608528
 20
84.05093698022807
 30
0.0
 10
41.00177382152087
 20
84.01802703267606
 30
0.0
 10
41.02814535766276
 20
83.98009991028785
 30
0.0
 10
41.04537299826248
 20
83.94442198598983
 30
0.0
 10
41.05705823206367
 20
83.9129232143477
 30
0.0
 10
41.06426292479995
 20
83.88608452685922
 30
0.0
 10
41.07062792859755
 20
83.85654510060668
 30
0.0
 10
41.07591250642017
 20
83.82426961485993
 30
0.0
 10
41.07977487581349
 20
83.78914405755502
 30
0.0
 10
41.08263642601276
 20
83.75122591101592
 30
0.0
 10
41.08457320381606
 20
83.71048570513504
 30
0.0
 10
41.08471005851015
 20
83.68237731665624
 30
0.0
 10
41.08478060492818
 20
83.66788788947844
 30
0.0
  0
SPLINE
  5
133
330
1F
100
AcDbEntity
  8
0
  6
Continuous
 62
     7
370
    15
100
AcDbSpline
210
0.0
220
0.0
230
1.0
 70
     8
 71
     3
 72
    19
 73
    15
 74
     0
 42
0.000000001
 43
0.00000001
 40
0.0
 40
0.0
 40
0.0
 40
0.0
 40
0.0717660641583407
 40
0.1412255357663695
 40
0.2091158524974625
 40
0.2748396534685271
 40
0.3394829303752205
 40
0.4024762667354
 40
0.4649418891713276
 40
0.5268326406463836
 40
0.6474148160608225
 40
0.7655615117859493
 40
0.8816150870393313
 40
0.9999999999999999
 40
0.9999999999999999
 40
0.9999999999999999
 40
0.9999999999999999
 10
40.40291670602327
 20
83.8944691695265
 30
0.0
 10
40.40809923257736
 20
83.90381441133586
 30
0.0
 10
40.41829771702554
 20
83.92220453481373
 30
0.0
 10
40.43542216913338
 20
83.94823131845986
 30
0.0
 10
40.45336386601655
 20
83.97257555228236
 30
0.0
 10
40.472275713096
 20
83.99525655196987
 30
0.0
 10
40.49209095871729
 20
84.01616231316804
 30
0.0
 10
40.51290285704504
 20
84.03536195456714
 30
0.0
 10
40.53459293811881
 20
84.052937928192
 30
0.0
 10
40.56475250499058
 20
84.07347078907961
 30
0.0
 10
40.60399119885405
 20
84.09528046179697
 30
0.0
 10
40.65346378982615
 20
84.11419002247881
 30
0.0
 10
40.70492531301609
 20
84.12587558290025
 30
0.0
 10
40.73985700255492
 20
84.12724773959712
 30
0.0
 10
40.75749653374763
 20
84.12794064054681
 30
0.0
  0
SPLINE
  5
134
330
1F
100
AcDbEntity
  8
0
  6
Continuous
 62
     7
370
    15
100
AcDbSpline
210
0.0
220
0.0
230
1.0
 70
     8
 71
     3
 72
    19
 73
    15
 74
     0
 42
0.000000001
 43
0.00000001
 40
0.0
 40
0.0
 40
0.0
 40
0.0
 40
0.0841520188443168
 40
0.1665323202984584
 40
0.2488363311465306
 40
0.3312461454872607
 40
0.4129571090216171
 40
0.4904942776695666
 40
0.5661557919819237
 40
0.6399873346864665
 40
0.7167654882718498
 40
0.8021439047100982
 40
0.8958332007101922
 40
1.0
 40
1.0
 40
1.0
 40
1.0
 10
40.09524317837904
 20
84.12794064054681
 30
0.0
 10
40.10691999553403
 20
84.12754554551967
 30
0.0
 10
40.13002778880181
 20
84.12676367370588
 30
0.0
 10
40.16426641809561
 20
84.12167610088606
 30
0.0
 10
40.19747488149679
 20
84.1128820414412
 30
0.0
 10
40.22945696996354
 20
84.10063284458447
 30
0.0
 10
40.25958948861955
 20
84.08579853137587
 30
0.0
 10
40.28721546515017
 20
84.06839283820496
 30
0.0
 10
40.31201985336211
 20
84.04885257458442
 30
0.0
 10
40.33399011680299
 20
84.02629535884303
 30
0.0
 10
40.35374656390204
 20
84.00008777547366
 30
0.0
 10
40.37191922319374
 20
83.96952301472733
 30
0.0
 10
40.38871089572924
 20
83.93391476188785
 30
0.0
 10
40.39801716424613
 20
83.90807383717294
 30
0.0
 10
40.40291670602327
 20
83.8944691695265
 30
0.0
  0
SPLINE
  5
135
330
1F
100
AcDbEntity
  8
0
  6
Continuous
 62
     7
370
    15
100
AcDbSpline
210
0.0
220
0.0
230
1.0
 70
     8
 71
     3
 72
    11
 73
     7
 74
     0
 42
0.000000001
 43
0.00000001
 40
0.0
 40
0.0
 40
0.0
 40
0.0
 40
0.253734075690661
 40
0.5030351201318565
 40
0.7500135973308791
 40
1.0
 40
1.0
 40
1.0
 40
1.0
 10
39.89595765487477
 20
84.07891428170599
 30
0.0
 10
39.91178150040312
 20
84.08647583345049
 30
0.0
 10
39.94315273035966
 20
84.10146682778118
 30
0.0
 10
39.99282606835093
 20
84.11667415512747
 30
0.0
 10
40.04365429165787
 20
84.12601965472926
 30
0.0
 10
40.07797763441301
 20
84.12729773337826
 30
0.0
 10
40.09524317837904
 20
84.12794064054681
 30
0.0
  0
SPLINE
  5
136
330
1F
100
AcDbEntity
  8
0
  6
Continuous
 62
     7
370
    15
100
AcDbSpline
210
0.0
220
0.0
230
1.0
 70
     8
 71
     3
 72
    11
 73
     7
 74
     0
 42
0.000000001
 43
0.00000001
 40
0.0
 40
0.0
 40
0.0
 40
0.0
 40
0.283594808138694
 40
0.5433948405759664
 40
0.7806456291745597
 40
0.9999999999999999
 40
0.9999999999999999
 40
0.9999999999999999
 40
0.9999999999999999
 10
39.76186393826152
 20
83.94296551367715
 30
0.0
 10
39.77255459790171
 20
83.95766410123576
 30
0.0
 10
39.79303892668389
 20
83.98582800414893
 30
0.0
 10
39.82662802747712
 20
84.02294159372622
 30
0.0
 10
39.86018328427729
 20
84.0544376521818
 30
0.0
 10
39.88434858036229
 20
84.07097141615128
 30
0.0
 10
39.89595765487477
 20
84.07891428170599
 30
0.0
  0
LINE
  5
137
330
1F
100
AcDbEntity
  8
0
  6
Continuous
 62
     7
370
    15
100
AcDbLine
 10
39.7618639611
 20
84.1109801431
 30
0.0
 11
39.7618639611
 21
83.9429655343
 31
0.0
  0
LINE
  5
138
330
1F
100
AcDbEntity
  8
0
  6
Continuous
 62
     7
370
    15
100
AcDbLine
 10
39.6431406473
 20
84.1109801431
 30
0.0
 11
39.7618639611
 21
84.1109801431
 31
0.0
  0
LINE
  5
139
330
1F
100
AcDbEntity
  8
0
  6
Continuous
 62
     7
370
    15
100
AcDbLine
 10
39.6431406473
 20
83.1442333756
 30
0.0
 11
39.6431406473
 21
84.1109801431
 31
0.0
  0
LINE
  5
13A
330
1F
100
AcDbEntity
  8
0
  6
Continuous
 62
     7
370
    15
100
AcDbLine
 10
38.1166983491
 20
83.1442333756
 30
0.0
 11
37.9979749771
 21
83.1442333756
 31
0.0
  0
LINE
  5
13B
330
1F
100
AcDbEntity
  8
0
  6
Continuous
 62
     7
370
    15
100
AcDbLine
 10
38.1166983491
 20
84.5010709481
 30
0.0
 11
38.1166983491
 21
83.1442333756
 31
0.0
  0
LINE
  5
13C
330
1F
100
AcDbEntity
  8
0
  6
Continuous
 62
     7
370
    15
100
AcDbLine
 10
37.9979749771
 20
84.5010709481
 30
0.0
 11
38.1166983491
 21
84.5010709481
 31
0.0
  0
LINE
  5
13D
330
1F
100
AcDbEntity
  8
0
  6
Continuous
 62
     7
370
    15
100
AcDbLine
 10
37.9979749771
 20
83.1442333756
 30
0.0
 11
37.9979749771
 21
84.5010709481
 31
0.0
  0
LINE
  5
13E
330
1F
100
AcDbEntity
  8
0
  6
Continuous
 62
     7
370
    15
100
AcDbLine
 10
36.0984021893
 20
83.1442333756
 30
0.0
 11
35.9796790501
 21
83.1442333756
 31
0.0
  0
LINE
  5
13F
330
1F
100
AcDbEntity
  8
0
  6
Continuous
 62
     7
370
    15
100
AcDbLine
 10
36.0984021893
 20
83.78873124
 30
0.0
 11
36.0984021893
 21
83.1442333756
 31
0.0
  0
LINE
  5
140
330
1F
100
AcDbEntity
  8
0
  6
Continuous
 62
     7
370
    15
100
AcDbLine
 10
36.6241768563
 20
83.78873124
 30
0.0
 11
36.0984021893
 21
83.78873124
 31
0.0
  0
LINE
  5
141
330
1F
100
AcDbEntity
  8
0
  6
Continuous
 62
     7
370
    15
100
AcDbLine
 10
36.6241768563
 20
83.9244149856
 30
0.0
 11
36.6241768563
 21
83.78873124
 31
0.0
  0
LINE
  5
142
330
1F
100
AcDbEntity
  8
0
  6
Continuous
 62
     7
370
    15
100
AcDbLine
 10
36.0984021893
 20
83.9244149856
 30
0.0
 11
36.6241768563
 21
83.9244149856
 31
0.0
  0
LINE
  5
143
330
1F
100
AcDbEntity
  8
0
  6
Continuous
 62
     7
370
    15
100
AcDbLine
 10
36.0984021893
 20
84.3314662807
 30
0.0
 11
36.0984021893
 21
83.9244149856
 31
0.0
  0
LINE
  5
144
330
1F
100
AcDbEntity
  8
0
  6
Continuous
 62
     7
370
    15
100
AcDbLine
 10
36.6241768563
 20
84.3314662807
 30
0.0
 11
36.0984021893
 21
84.3314662807
 31
0.0
  0
LINE
  5
145
330
1F
100
AcDbEntity
  8
0
  6
Continuous
 62
     7
370
    15
100
AcDbLine
 10
36.6241768563
 20
84.4671500845
 30
0.0
 11
36.6241768563
 21
84.3314662807
 31
0.0
  0
LINE
  5
146
330
1F
100
AcDbEntity
  8
0
  6
Continuous
 62
     7
370
    15
100
AcDbLine
 10
35.9796790501
 20
84.4671500845
 30
0.0
 11
36.6241768563
 21
84.4671500845
 31
0.0
  0
LINE
  5
147
330
1F
100
AcDbEntity
  8
0
  6
Continuous
 62
     7
370
    15
100
AcDbLine
 10
35.9796790501
 20
83.1442333756
 30
0.0
 11
35.9796790501
 21
84.4671500845
 31
0.0
  0
LINE
  5
148
330
1F
100
AcDbEntity
  8
0
  6
Continuous
 62
     7
370
    15
100
AcDbLine
 10
43.2811614221
 20
80.2446606567
 30
0.0
 11
42.6536241642
 21
80.2446606567
 31
0.0
  0
LINE
  5
149
330
1F
100
AcDbEntity
  8
0
  6
Continuous
 62
     7
370
    15
100
AcDbLine
 10
43.2811614221
 20
79.9393721854
 30
0.0
 11
43.2811614221
 21
80.2446606567
 31
0.0
  0
LINE
  5
14A
330
1F
100
AcDbEntity
  8
0
  6
Continuous
 62
     7
370
    15
100
AcDbLine
 10
43.3998847941
 20
79.9393721854
 30
0.0
 11
43.2811614221
 21
79.9393721854
 31
0.0
  0
LINE
  5
14B
330
1F
100
AcDbEntity
  8
0
  6
Continuous
 62
     7
370
    15
100
AcDbLine
 10
43.3998847941
 20
80.2446606567
 30
0.0
 11
43.3998847941
 21
79.9393721854
 31
0.0
  0
LINE
  5
14C
330
1F
100
AcDbEntity
  8
0
  6
Continuous
 62
     7
370
    15
100
AcDbLine
 10
43.5525290298
 20
80.2446606567
 30
0.0
 11
43.3998847941
 21
80.2446606567
 31
0.0
  0
LINE
  5
14D
330
1F
100
AcDbEntity
  8
0
  6
Continuous
 62
     7
370
    15
100
AcDbLine
 10
43.5525290298
 20
80.3803445769
 30
0.0
 11
43.5525290298
 21
80.2446606567
 31
0.0
  0
LINE
  5
14E
330
1F
100
AcDbEntity
  8
0
  6
Continuous
 62
     7
370
    15
100
AcDbLine
 10
43.3998847941
 20
80.3803445769
 30
0.0
 11
43.5525290298
 21
80.3803445769
 31
0.0
  0
LINE
  5
14F
330
1F
100
AcDbEntity
  8
0
  6
Continuous
 62
     7
370
    15
100
AcDbLine
 10
43.3998847941
 20
81.2962098744
 30
0.0
 11
43.3998847941
 21
80.3803445769
 31
0.0
  0
LINE
  5
150
330
1F
100
AcDbEntity
  8
0
  6
Continuous
 62
     7
370
    15
100
AcDbLine
 10
43.3757691274
 20
81.2962098744
 30
0.0
 11
43.3998847941
 21
81.2962098744
 31
0.0
  0
LINE
  5
151
330
1F
100
AcDbEntity
  8
0
  6
Continuous
 62
     7
370
    15
100
AcDbLine
 10
42.6536241642
 20
80.2446606567
 30
0.0
 11
43.3757691274
 21
81.2962098744
 31
0.0
  0
LINE
  5
152
330
1F
100
AcDbEntity
  8
0
  6
Continuous
 62
     7
370
    15
100
AcDbLine
 10
41.5342331028
 20
80.3803445769
 30
0.0
 11
41.025418984
 21
80.3803445769
 31
0.0
  0
LINE
  5
153
330
1F
100
AcDbEntity
  8
0
  6
Continuous
 62
     7
370
    15
100
AcDbLine
 10
41.5342331028
 20
80.5160282643
 30
0.0
 11
41.5342331028
 21
80.3803445769
 31
0.0
  0
LINE
  5
154
330
1F
100
AcDbEntity
  8
0
  6
Continuous
 62
     7
370
    15
100
AcDbLine
 10
41.025418984
 20
80.5160282643
 30
0.0
 11
41.5342331028
 21
80.5160282643
 31
0.0
  0
LINE
  5
155
330
1F
100
AcDbEntity
  8
0
  6
Continuous
 62
     7
370
    15
100
AcDbLine
 10
41.025418984
 20
80.3803445769
 30
0.0
 11
41.025418984
 21
80.5160282643
 31
0.0
  0
SPLINE
  5
156
330
1F
100
AcDbEntity
  8
0
  6
Continuous
 62
     7
370
    15
100
AcDbSpline
210
0.0
220
0.0
230
1.0
 70
     8
 71
     3
 72
    19
 73
    15
 74
     0
 42
0.000000001
 43
0.00000001
 40
0.0
 40
0.0
 40
0.0
 40
0.0
 40
0.0894097111101355
 40
0.1763057644831056
 40
0.2626259021834183
 40
0.3494457264756543
 40
0.4354982637429556
 40
0.5189281301037149
 40
0.6013546565787407
 40
0.6842564217184163
 40
0.765806739796833
 40
0.8448768657103879
 40
0.9222797948488748
 40
1.0
 40
1.0
 40
1.0
 40
1.0
 10
39.44571017557455
 20
81.29620987131604
 30
0.0
 10
39.46253155802652
 20
81.29566318805722
 30
0.0
 10
39.49570140787879
 20
81.29458519095064
 30
0.0
 10
39.54445830580288
 20
81.28559431739745
 30
0.0
 10
39.59110997078611
 20
81.27057750487437
 30
0.0
 10
39.63549552544137
 20
81.25020563772316
 30
0.0
 10
39.67682036820528
 20
81.22511295473953
 30
0.0
 10
39.71333374104822
 20
81.19472333864711
 30
0.0
 10
39.745587425303
 20
81.16065197870203
 30
0.0
 10
39.77226664575185
 20
81.1225067714972
 30
0.0
 10
39.79425083312136
 20
81.08218268640286
 30
0.0
 10
39.80955920943628
 20
81.0399920311844
 30
0.0
 10
39.8193684376937
 20
80.9968464047695
 30
0.0
 10
39.82060569141291
 20
80.96765227829295
 30
0.0
 10
39.82122558356067
 20
80.95302535943036
 30
0.0
  0
SPLINE
  5
157
330
1F
100
AcDbEntity
  8
0
  6
Continuous
 62
     7
370
    15
100
AcDbSpline
210
0.0
220
0.0
230
1.0
 70
     8
 71
     3
 72
    19
 73
    15
 74
     0
 42
0.000000001
 43
0.00000001
 40
0.0
 40
0.0
 40
0.0
 40
0.0
 40
0.0740584262733832
 40
0.1488703523168772
 40
0.2266676683691787
 40
0.3077347594511136
 40
0.3911572038059792
 40
0.4739293555425536
 40
0.5579277515150558
 40
0.6449892900513596
 40
0.733364055517618
 40
0.8210920421841605
 40
0.9092872149973381
 40
1.0
 40
1.0
 40
1.0
 40
1.0
 10
39.05800442971451
 20
80.95673546226155
 30
0.0
 10
39.0586225810848
 20
80.97083305129271
 30
0.0
 10
39.05986517314235
 20
80.99917166381114
 30
0.0
 10
39.06991303538739
 20
81.0413561211377
 30
0.0
 10
39.08628698909917
 20
81.08278857279863
 30
0.0
 10
39.10855772308928
 20
81.12326820234686
 30
0.0
 10
39.13629634347792
 20
81.16142497991261
 30
0.0
 10
39.16957584145568
 20
81.19564730187153
 30
0.0
 10
39.20760149233733
 20
81.22562515388226
 30
0.0
 10
39.25018348373447
 20
81.2507893620342
 30
0.0
 10
39.29600789426476
 20
81.27126949496875
 30
0.0
 10
39.34435699228021
 20
81.28539764883178
 30
0.0
 10
39.39438837511091
 20
81.2946339191349
 30
0.0
 10
39.42844316784088
 20
81.29567964871563
 30
0.0
 10
39.44571017557455
 20
81.29620987131604
 30
0.0
  0
SPLINE
  5
158
330
1F
100
AcDbEntity
  8
0
  6
Continuous
 62
     7
370
    15
100
AcDbSpline
210
0.0
220
0.0
230
1.0
 70
     8
 71
     3
 72
    15
 73
    11
 74
     0
 42
0.000000001
 43
0.00000001
 40
0.0
 40
0.0
 40
0.0
 40
0.0
 40
0.1458600603916654
 40
0.2824259030758195
 40
0.4108504003575523
 40
0.5350294213479313
 40
0.6547010781259418
 40
0.7701334325965032
 40
0.8845558441988616
 40
1.0
 40
1.0
 40
1.0
 40
1.0
 10
39.25119478428181
 20
80.67635769116112
 30
0.0
 10
39.23585221111694
 20
80.6847241066811
 30
0.0
 10
39.20614469509123
 20
80.70092382888329
 30
0.0
 10
39.16680892418701
 20
80.73068824666254
 30
0.0
 10
39.13302139686947
 20
80.76292501000043
 30
0.0
 10
39.1057108339613
 20
80.79831484316287
 30
0.0
 10
39.0842144858507
 20
80.83575220339084
 30
0.0
 10
39.06946638234643
 20
80.87500285830804
 30
0.0
 10
39.0594891398806
 20
80.91533900835323
 30
0.0
 10
39.05850079747901
 20
80.9428958147978
 30
0.0
 10
39.05800442971451
 20
80.95673546226155
 30
0.0
  0
SPLINE
  5
159
330
1F
100
AcDbEntity
  8
0
  6
Continuous
 62
     7
370
    15
100
AcDbSpline
210
0.0
220
0.0
230
1.0
 70
     8
 71
     3
 72
    23
 73
    19
 74
     0
 42
0.000000001
 43
0.00000001
 40
0.0
 40
0.0
 40
0.0
 40
0.0
 40
0.0588535860286677
 40
0.1163154589633513
 40
0.1726748434114557
 40
0.2287803868808991
 40
0.2845803591252745
 40
0.3402565063845452
 40
0.3966298050124571
 40
0.4535072628751919
 40
0.5123181897799957
 40
0.5726484440568308
 40
0.6360219358218011
 40
0.7023629463891928
 40
0.7714830560569288
 40
0.8441844774899004
 40
0.9200697939721543
 40
1.0
 40
1.0
 40
1.0
 40
1.0
 10
38.99016254937263
 20
80.3138276430842
 30
0.0
 10
38.99038097464243
 20
80.32311043293144
 30
0.0
 10
38.99081266007098
 20
80.34145650212453
 30
0.0
 10
38.9938005044916
 20
80.3685609208514
 30
0.0
 10
38.99860400028185
 20
80.39494219798337
 30
0.0
 10
39.00512766401035
 20
80.42069777669478
 30
0.0
 10
39.01396891508616
 20
80.44564015053442
 30
0.0
 10
39.02464376898304
 20
80.46988750219302
 30
0.0
 10
39.03709126292526
 20
80.49346720625819
 30
0.0
 10
39.05148503662052
 20
80.51650821190032
 30
0.0
 10
39.06823014688289
 20
80.53868767039177
 30
0.0
 10
39.08719081212973
 20
80.56038198978297
 30
0.0
 10
39.10874598867873
 20
80.58125454075449
 30
0.0
 10
39.13265587760841
 20
80.60156033826763
 30
0.0
 10
39.15864723627543
 20
80.62165959027685
 30
0.0
 10
39.18739517190526
 20
80.64046607103168
 30
0.0
 10
39.21813758859998
 20
80.65931119461771
 30
0.0
 10
39.23998665560038
 20
80.67057803191038
 30
0.0
 10
39.25119478428181
 20
80.67635769116112
 30
0.0
  0
SPLINE
  5
15A
330
1F
100
AcDbEntity
  8
0
  6
Continuous
 62
     7
370
    15
100
AcDbSpline
210
0.0
220
0.0
230
1.0
 70
     8
 71
     3
 72
    23
 73
    19
 74
     0
 42
0.000000001
 43
0.00000001
 40
0.0
 40
0.0
 40
0.0
 40
0.0
 40
0.0785564333527025
 40
0.1528628401420923
 40
0.2235596934382872
 40
0.2903749439782088
 40
0.3554030728222044
 40
0.4182911570440928
 40
0.4803885637756457
 40
0.5430726152062791
 40
0.6049239444620947
 40
0.6643983091132992
 40
0.7219425547367025
 40
0.7783748910546745
 40
0.8338299406509401
 40
0.888861236318885
 40
0.9440889395778869
 40
1.0
 40
1.0
 40
1.0
 40
1.0
 10
39.43775995522198
 20
79.90545132430749
 30
0.0
 10
39.41999001369151
 20
79.9058869335344
 30
0.0
 10
39.38541151240808
 20
79.90673458484409
 30
0.0
 10
39.33508100512333
 20
79.91247771820815
 30
0.0
 10
39.28816544003301
 20
79.9225424178157
 30
0.0
 10
39.24439202939631
 20
79.93631761241066
 30
0.0
 10
39.20402466614004
 20
79.95423754989922
 30
0.0
 10
39.16717837492293
 20
79.97654132344363
 30
0.0
 10
39.13332154612461
 20
80.00233118402238
 30
0.0
 10
39.1034816587945
 20
80.03234781477101
 30
0.0
 10
39.07698989578928
 20
80.0644976653215
 30
0.0
 10
39.0537186376358
 20
80.09766568448703
 30
0.0
 10
39.03437605438275
 20
80.13185489998543
 30
0.0
 10
39.01799944393967
 20
80.16655552091581
 30
0.0
 10
39.00546272108001
 20
80.20225391845942
 30
0.0
 10
38.99677977253324
 20
80.23876642342356
 30
0.0
 10
38.99126535918948
 20
80.27602926015635
 30
0.0
 10
38.99053165641381
 20
80.30117664100693
 30
0.0
 10
38.99016254937263
 20
80.3138276430842
 30
0.0
  0
SPLINE
  5
15B
330
1F
100
AcDbEntity
  8
0
  6
Continuous
 62
     7
370
    15
100
AcDbSpline
210
0.0
220
0.0
230
1.0
 70
     8
 71
     3
 72
    15
 73
    11
 74
     0
 42
0.000000001
 43
0.00000001
 40
0.0
 40
0.0
 40
0.0
 40
0.0
 40
0.119283450373371
 40
0.2370928820686307
 40
0.3547960442151274
 40
0.4745763009408491
 40
0.5974600658149758
 40
0.7249261546156145
 40
0.8588831991927643
 40
1.0
 40
1.0
 40
1.0
 40
1.0
 10
39.78889468746024
 20
80.05067534941433
 30
0.0
 10
39.77837316294641
 20
80.03911163119338
 30
0.0
 10
39.75746013131518
 20
80.01612709082458
 30
0.0
 10
39.72163444141265
 20
79.98628556442921
 30
0.0
 10
39.68231664604174
 20
79.96120707320947
 30
0.0
 10
39.63965888340747
 20
79.94076918449606
 30
0.0
 10
39.59377518138803
 20
79.92486173186671
 30
0.0
 10
39.5446753165502
 20
79.91343078015541
 30
0.0
 10
39.49226356827447
 20
79.90688331435034
 30
0.0
 10
39.4562403693706
 20
79.90593686586276
 30
0.0
 10
39.43775995522198
 20
79.90545132430749
 30
0.0
  0
SPLINE
  5
15C
330
1F
100
AcDbEntity
  8
0
  6
Continuous
 62
     7
370
    15
100
AcDbSpline
210
0.0
220
0.0
230
1.0
 70
     8
 71
     3
 72
    15
 73
    11
 74
     0
 42
0.000000001
 43
0.00000001
 40
0.0
 40
0.0
 40
0.0
 40
0.0
 40
0.1281581855276742
 40
0.2536731361531691
 40
0.3773253059734892
 40
0.4993845547646063
 40
0.622918368042346
 40
0.7458393931045757
 40
0.8713952850140289
 40
1.0
 40
1.0
 40
1.0
 40
1.0
 10
39.88906746390254
 20
80.32469294423271
 30
0.0
 10
39.88877588530576
 20
80.31195600362712
 30
0.0
 10
39.8881987418578
 20
80.28674481906555
 30
0.0
 10
39.88317166456285
 20
80.2495345328745
 30
0.0
 10
39.87564503281434
 20
80.21339555577654
 30
0.0
 10
39.86465366954232
 20
80.1783358107363
 30
0.0
 10
39.85039890573903
 20
80.14454875593144
 30
0.0
 10
39.83283176833001
 20
80.11200546954075
 30
0.0
 10
39.81294598543229
 20
80.0801725758947
 30
0.0
 10
39.79697564501808
 20
80.06058607587653
 30
0.0
 10
39.78889468746024
 20
80.05067534941433
 30
0.0
  0
SPLINE
  5
15D
330
1F
100
AcDbEntity
  8
0
  6
Continuous
 62
     7
370
    15
100
AcDbSpline
210
0.0
220
0.0
230
1.0
 70
     8
 71
     3
 72
    23
 73
    19
 74
     0
 42
0.000000001
 43
0.00000001
 40
0.0
 40
0.0
 40
0.0
 40
0.0
 40
0.0795248295850137
 40
0.1550999763495364
 40
0.2272198200732686
 40
0.2959105041914714
 40
0.3620558809471788
 40
0.4255201169126364
 40
0.4858127192253082
 40
0.5444947060018105
 40
0.6014596357222254
 40
0.6578405937966488
 40
0.7139744721931377
 40
0.7694679515974512
 40
0.8261299671813288
 40
0.8828853593090691
 40
0.940700881666202
 40
1.0
 40
1.0
 40
1.0
 40
1.0
 10
39.63333537589507
 20
80.67635769116112
 30
0.0
 10
39.64416384460947
 20
80.67071149947438
 30
0.0
 10
39.6652829749524
 20
80.65969954004423
 30
0.0
 10
39.69536126496043
 20
80.64196836410251
 30
0.0
 10
39.72284958388555
 20
80.6232808565488
 30
0.0
 10
39.74851059979942
 20
80.60451968349702
 30
0.0
 10
39.77189347346744
 20
80.58496635097424
 30
0.0
 10
39.79273674856605
 20
80.56454310443134
 30
0.0
 10
39.81155528347549
 20
80.5437597262992
 30
0.0
 10
39.82796957385242
 20
80.52226428076072
 30
0.0
 10
39.84240706868375
 20
80.50011387470431
 30
0.0
 10
39.85488486978748
 20
80.47725036971511
 30
0.0
 10
39.86555030062007
 20
80.45372387153395
 30
0.0
 10
39.87400295900796
 20
80.42927756974282
 30
0.0
 10
39.88096595765302
 20
80.40427056608037
 30
0.0
 10
39.8857570345587
 20
80.37837995984457
 30
0.0
 10
39.88833366718617
 20
80.3517763548037
 30
0.0
 10
39.88882080798093
 20
80.33379666934582
 30
0.0
 10
39.88906746390254
 20
80.32469294423271
 30
0.0
  0
SPLINE
  5
15E
330
1F
100
AcDbEntity
  8
0
  6
Continuous
 62
     7
370
    15
100
AcDbSpline
210
0.0
220
0.0
230
1.0
 70
     8
 71
     3
 72
    15
 73
    11
 74
     0
 42
0.000000001
 43
0.00000001
 40
0.0
 40
0.0
 40
0.0
 40
0.0
 40
0.1219040408698834
 40
0.2394126076020038
 40
0.3554101042801776
 40
0.4720907288033015
 40
0.5928589821563579
 40
0.7187034677136838
 40
0.8548923829515271
 40
1.0
 40
1.0
 40
1.0
 40
1.0
 10
39.82122558356067
 20
80.95302535943036
 30
0.0
 10
39.82068335379778
 20
80.93867108469878
 30
0.0
 10
39.81961844536224
 20
80.91048010498064
 30
0.0
 10
39.8106604325052
 20
80.8693840689666
 30
0.0
 10
39.79557415028103
 20
80.83089776258488
 30
0.0
 10
39.77497665415347
 20
80.79458447411585
 30
0.0
 10
39.74813071096681
 20
80.76110277710265
 30
0.0
 10
39.71539467198783
 20
80.7300269090187
 30
0.0
 10
39.67702952990916
 20
80.70110158997628
 30
0.0
 10
39.64820473065586
 20
80.6847781725264
 30
0.0
 10
39.63333537589507
 20
80.67635769116112
 30
0.0
  0
SPLINE
  5
15F
330
1F
100
AcDbEntity
  8
0
  6
Continuous
 62
     7
370
    15
100
AcDbSpline
210
0.0
220
0.0
230
1.0
 70
     8
 71
     3
 72
    31
 73
    27
 74
     0
 42
0.000000001
 43
0.00000001
 40
0.0
 40
0.0
 40
0.0
 40
0.0
 40
0.065063289617279
 40
0.1267731664665229
 40
0.1855157632260791
 40
0.2407646791677153
 40
0.292979796023598
 40
0.3422503727797676
 40
0.3889192861856601
 40
0.4327756640583103
 40
0.4746284326311178
 40
0.5147746906379534
 40
0.5536058934984424
 40
0.5914264064311732
 40
0.6280281199460672
 40
0.6638036341103207
 40
0.698984336131664
 40
0.7335914893067053
 40
0.7676284691511401
 40
0.8012083477865922
 40
0.834263839726623
 40
0.866980694728776
 40
0.8997197415181607
 40
0.932701912498538
 40
0.9661758834327495
 40
0.9999999999999999
 40
0.9999999999999999
 40
0.9999999999999999
 40
0.9999999999999999
 10
37.85381105364613
 20
80.6003005831216
 30
0.0
 10
37.85356477020245
 20
80.58006982029869
 30
0.0
 10
37.85308489695613
 20
80.5406510039711
 30
0.0
 10
37.85059830243382
 20
80.48299792699011
 30
0.0
 10
37.84570024838709
 20
80.42857009514809
 30
0.0
 10
37.83957325875848
 20
80.37723697392114
 30
0.0
 10
37.83108732930126
 20
80.32921221918369
 30
0.0
 10
37.82065323372414
 20
80.28432964491158
 30
0.0
 10
37.8090681414671
 20
80.24239542734757
 30
0.0
 10
37.79476749012203
 20
80.20375310272118
 30
0.0
 10
37.77911522758007
 20
80.1678636122336
 30
0.0
 10
37.76208543616854
 20
80.13434954128755
 30
0.0
 10
37.74384059118973
 20
80.10291466280448
 30
0.0
 10
37.72396329769156
 20
80.07381059179181
 30
0.0
 10
37.70277644210839
 20
80.0468311589101
 30
0.0
 10
37.67982656360627
 20
80.02245259320549
 30
0.0
 10
37.65576059840404
 20
80.00008748802895
 30
0.0
 10
37.63028031027632
 20
79.98018642645843
 30
0.0
 10
37.60366642037607
 20
79.96276746756314
 30
0.0
 10
37.57646760260982
 20
79.94718961339869
 30
0.0
 10
37.54820126426129
 20
79.9346284459245
 30
0.0
 10
37.51950797558079
 20
79.92384287984065
 30
0.0
 10
37.48997731338854
 20
79.91560282808607
 30
0.0
 10
37.45964608833628
 20
79.9099052696006
 30
0.0
 10
37.42866858249418
 20
79.90590936259537
 30
0.0
 10
37.40772810997835
 20
79.90560453240441
 30
0.0
 10
37.39720339806387
 20
79.90545132430749
 30
0.0
  0
SPLINE
  5
160
330
1F
100
AcDbEntity
  8
0
  6
Continuous
 62
     7
370
    15
100
AcDbSpline
210
0.0
220
0.0
230
1.0
 70
     8
 71
     3
 72
    31
 73
    27
 74
     0
 42
0.000000001
 43
0.00000001
 40
0.0
 40
0.0
 40
0.0
 40
0.0
 40
0.0337881161627105
 40
0.0671939323738803
 40
0.0998624108568253
 40
0.1325666121262585
 40
0.1651511732547865
 40
0.197913187355792
 40
0.2313190035669617
 40
0.2650832782673734
 40
0.299255308758115
 40
0.3343985665049789
 40
0.369942823509308
 40
0.4062835607000615
 40
0.4440638196985083
 40
0.4829977068727757
 40
0.5233544466133048
 40
0.5655365896041492
 40
0.6096129240658195
 40
0.6563908113764173
 40
0.7058854949364574
 40
0.758324500261731
 40
0.8138317829411501
 40
0.87279455903939
 40
0.934722229540074
 40
1.0
 40
1.0
 40
1.0
 40
1.0
 10
37.39720339806387
 20
81.29620987131604
 30
0.0
 10
37.40772454618146
 20
81.29602548879429
 30
0.0
 10
37.42864779954382
 20
81.29565880997035
 30
0.0
 10
37.45958151280641
 20
81.29213458169089
 30
0.0
 10
37.48980058893068
 20
81.28628686552034
 30
0.0
 10
37.51917619492872
 20
81.27800125905604
 30
0.0
 10
37.54794962731386
 20
81.2677219407949
 30
0.0
 10
37.57589582901326
 20
81.25483782212565
 30
0.0
 10
37.60318838665772
 20
81.23984015500439
 30
0.0
 10
37.62939358461912
 20
81.2222174394748
 30
0.0
 10
37.65479910887195
 20
81.20256937674567
 30
0.0
 10
37.67878092820961
 20
81.18035848704916
 30
0.0
 10
37.70134122555776
 20
81.1558090395875
 30
0.0
 10
37.72276314158172
 20
81.12918369222561
 30
0.0
 10
37.74243891790406
 20
81.09997177027957
 30
0.0
 10
37.76117649496924
 20
81.06868134782006
 30
0.0
 10
37.77794806806302
 20
81.03476521737717
 30
0.0
 10
37.79410075778826
 20
80.99878926673486
 30
0.0
 10
37.80804316051411
 20
80.95975806236449
 30
0.0
 10
37.82061700917359
 20
80.91789162014484
 30
0.0
 10
37.83077661931947
 20
80.87269542451874
 30
0.0
 10
37.83923923118537
 20
80.82440660561255
 30
0.0
 10
37.84579518887909
 20
80.77284782474499
 30
0.0
 10
37.8505700268076
 20
80.71812960429858
 30
0.0
 10
37.85309229407024
 20
80.6602159447409
 30
0.0
 10
37.85356729720491
 20
80.62061997198644
 30
0.0
 10
37.85381105364613
 20
80.6003005831216
 30
0.0
  0
SPLINE
  5
161
330
1F
100
AcDbEntity
  8
0
  6
Continuous
 62
     7
370
    15
100
AcDbSpline
210
0.0
220
0.0
230
1.0
 70
     8
 71
     3
 72
    31
 73
    27
 74
     0
 42
0.000000001
 43
0.00000001
 40
0.0
 40
0.0
 40
0.0
 40
0.0
 40
0.0685946222587425
 40
0.1332460424433008
 40
0.1943125864682564
 40
0.2512792231169663
 40
0.3045134392563466
 40
0.3542349066533251
 40
0.400480588773989
 40
0.4434107549384919
 40
0.4840148686163449
 40
0.5232523007732034
 40
0.5610423727283601
 40
0.5979002393644
 40
0.6335184888561957
 40
0.6683143511696511
 40
0.7024956712863817
 40
0.7366853535134584
 40
0.7702931693607891
 40
0.803437255019249
 40
0.8359129516660291
 40
0.8684602457892909
 40
0.9008465382431827
 40
0.9334665246307076
 40
0.9662575752981231
 40
1.0
 40
1.0
 40
1.0
 40
1.0
 10
36.95490613911621
 20
80.6003005831216
 30
0.0
 10
36.95503012216978
 20
80.62150406003305
 30
0.0
 10
36.95527096103839
 20
80.66269211955516
 30
0.0
 10
36.95795021538263
 20
80.72270893366971
 30
0.0
 10
36.96240101441172
 20
80.77901237623632
 30
0.0
 10
36.96850055712596
 20
80.8316051422687
 30
0.0
 10
36.97592324607952
 20
80.88050080921438
 30
0.0
 10
36.98583207583656
 20
80.92556870848912
 30
0.0
 10
36.99710060539639
 20
80.96701742884584
 30
0.0
 10
37.01016060723548
 20
81.00498213169244
 30
0.0
 10
37.02489706320372
 20
81.03997429920379
 30
0.0
 10
37.04093620341712
 20
81.07264096754994
 30
0.0
 10
37.05891456321412
 20
81.10293270983313
 30
0.0
 10
37.07780464637408
 20
81.13133300561685
 30
0.0
 10
37.09837111392387
 20
81.15737696168421
 30
0.0
 10
37.12002869246358
 20
81.18143237281471
 30
0.0
 10
37.1436226754574
 20
81.20294328147216
 30
0.0
 10
37.16835101489409
 20
81.22253994933796
 30
0.0
 10
37.19443759518501
 20
81.23971876749968
 30
0.0
 10
37.22113884101889
 20
81.25485018953599
 30
0.0
 10
37.24863853876802
 20
81.2677769250768
 30
0.0
 10
37.27701176861336
 20
81.27794086958325
 30
0.0
 10
37.30600350924429
 20
81.2863360408336
 30
0.0
 10
37.33571510885677
 20
81.29207710140238
 30
0.0
 10
37.36619562439223
 20
81.29568938526594
 30
0.0
 10
37.38676941075938
 20
81.29603472991774
 30
0.0
 10
37.39720339806387
 20
81.29620987131604
 30
0.0
  0
SPLINE
  5
162
330
1F
100
AcDbEntity
  8
0
  6
Continuous
 62
     7
370
    15
100
AcDbSpline
210
0.0
220
0.0
230
1.0
 70
     8
 71
     3
 72
    31
 73
    27
 74
     0
 42
0.000000001
 43
0.00000001
 40
0.0
 40
0.0
 40
0.0
 40
0.0
 40
0.033787146346991
 40
0.0666216577242939
 40
0.099284878095972
 40
0.1313611650426503
 40
0.1635851875953429
 40
0.1961039269870678
 40
0.2289022543238169
 40
0.2621580559050073
 40
0.2959912222583163
 40
0.3302178457247997
 40
0.3650598258919536
 40
0.4009507373401074
 40
0.4376203820767375
 40
0.4757075294370916
 40
0.5153806916250481
 40
0.556413541493164
 40
0.599764829872731
 40
0.6464241555840872
 40
0.6964314445175664
 40
0.7497815178015574
 40
0.806573306975532
 40
0.8674355315653992
 40
0.931886753250874
 40
1.0
 40
1.0
 40
1.0
 40
1.0
 10
37.39720339806387
 20
79.90545132430749
 30
0.0
 10
37.38676970021825
 20
79.90562759556721
 30
0.0
 10
37.36619648460748
 20
79.90597516808523
 30
0.0
 10
37.33571178808721
 20
79.90957113207035
 30
0.0
 10
37.30612288833461
 20
79.91535246810598
 30
0.0
 10
37.27728377594539
 20
79.92344743453326
 30
0.0
 10
37.24904649197031
 20
79.93335601849773
 30
0.0
 10
37.22179581219267
 20
79.94626529771672
 30
0.0
 10
37.19522874127387
 20
79.9611326392566
 30
0.0
 10
37.16941615908847
 20
79.97806424200263
 30
0.0
 10
37.14484311012401
 20
79.99746261628033
 30
0.0
 10
37.1213713158536
 20
80.01891816587313
 30
0.0
 10
37.09959043065921
 20
80.04296630050044
 30
0.0
 10
37.07931801951814
 20
80.0692273011989
 30
0.0
 10
37.06005102784891
 20
80.09745956839014
 30
0.0
 10
37.04232796114789
 20
80.12804856653528
 30
0.0
 10
37.02593481094955
 20
80.16087300561915
 30
0.0
 10
37.01095051536948
 20
80.19614495399932
 30
0.0
 10
36.99766515743378
 20
80.23437910827965
 30
0.0
 10
36.98592986299805
 20
80.27601287515411
 30
0.0
 10
36.97666409514478
 20
80.3214137257091
 30
0.0
 10
36.96873303762313
 20
80.37021701625193
 30
0.0
 10
36.96233602379419
 20
80.42263246017752
 30
0.0
 10
36.95796876392684
 20
80.47868851324222
 30
0.0
 10
36.95526951687462
 20
80.53835024399704
 30
0.0
 10
36.95502947537654
 20
80.57927364083694
 30
0.0
 10
36.95490613911621
 20
80.6003005831216
 30
0.0
  0
SPLINE
  5
163
330
1F
100
AcDbEntity
  8
0
  6
Continuous
 62
     7
370
    15
100
AcDbSpline
210
0.0
220
0.0
230
1.0
 70
     8
 71
     3
 72
    23
 73
    19
 74
     0
 42
0.000000001
 43
0.00000001
 40
0.0
 40
0.0
 40
0.0
 40
0.0
 40
0.076558932994048
 40
0.1491613519791144
 40
0.2188268461269947
 40
0.2855671390889787
 40
0.3503131057192113
 40
0.4141251538580796
 40
0.4771791613162271
 40
0.5403680185081838
 40
0.6022023899907494
 40
0.6620336537315636
 40
0.719934407049579
 40
0.7759074326823269
 40
0.8311148643832976
 40
0.8866674470119634
 40
0.9425523618334877
 40
1.0
 40
1.0
 40
1.0
 40
1.0
 10
39.43908499194741
 20
80.04113508499125
 30
0.0
 10
39.45146385125124
 20
80.0413727596016
 30
0.0
 10
39.47558183876109
 20
80.0418358259588
 30
0.0
 10
39.51076611113056
 20
80.04592337172386
 30
0.0
 10
39.54396925896971
 20
80.05240552152405
 30
0.0
 10
39.57512689408263
 20
80.06183358795481
 30
0.0
 10
39.60458780971446
 20
80.07334295409366
 30
0.0
 10
39.63185250008129
 20
80.08814906823638
 30
0.0
 10
39.65762236002915
 20
80.10498878557938
 30
0.0
 10
39.6806275492803
 20
80.12496791022657
 30
0.0
 10
39.70157998234669
 20
80.1463158144793
 30
0.0
 10
39.71984881611871
 20
80.16891502721514
 30
0.0
 10
39.73570777147608
 20
80.19215135250933
 30
0.0
 10
39.74815488868108
 20
80.21654989880511
 30
0.0
 10
39.75810558579116
 20
80.24164257188232
 30
0.0
 10
39.76525823890317
 20
80.26766075620161
 30
0.0
 10
39.76967157026507
 20
80.2946842519906
 30
0.0
 10
39.77011792074087
 20
80.31301574612733
 30
0.0
 10
39.77034417330425
 20
80.32230787812694
 30
0.0
  0
SPLINE
  5
164
330
1F
100
AcDbEntity
  8
0
  6
Continuous
 62
     7
370
    15
100
AcDbSpline
210
0.0
220
0.0
230
1.0
 70
     8
 71
     3
 72
    19
 73
    15
 74
     0
 42
0.000000001
 43
0.00000001
 40
0.0
 40
0.0
 40
0.0
 40
0.0
 40
0.0748982079275954
 40
0.1485962943439403
 40
0.2244712347857282
 40
0.3023227423595724
 40
0.3819186179896836
 40
0.4611486955215899
 40
0.5424171227241531
 40
0.6267160830665709
 40
0.7145968311855377
 40
0.8049029203553209
 40
0.9001272540718598
 40
1.0
 40
1.0
 40
1.0
 40
1.0
 10
39.10888583997092
 20
80.30985253290791
 30
0.0
 10
39.10940111933159
 20
80.29797239874019
 30
0.0
 10
39.11042342154239
 20
80.27440249016051
 30
0.0
 10
39.11853352013243
 20
80.23956704357401
 30
0.0
 10
39.13154933266015
 20
80.20584360915907
 30
0.0
 10
39.14970172083635
 20
80.17350700797343
 30
0.0
 10
39.17217904736202
 20
80.14328777135893
 30
0.0
 10
39.19981911115159
 20
80.11694707343942
 30
0.0
 10
39.23090418970593
 20
80.0935422288634
 30
0.0
 10
39.26648605715096
 20
80.07461297962281
 30
0.0
 10
39.30535276902376
 20
80.05949587666025
 30
0.0
 10
39.34749398798949
 20
80.04908037886042
 30
0.0
 10
39.39230492452118
 20
80.04218554512049
 30
0.0
 10
39.42324590135743
 20
80.04149075641423
 30
0.0
 10
39.43908499194741
 20
80.04113508499125
 30
0.0
  0
SPLINE
  5
165
330
1F
100
AcDbEntity
  8
0
  6
Continuous
 62
     7
370
    15
100
AcDbSpline
210
0.0
220
0.0
230
1.0
 70
     8
 71
     3
 72
    23
 73
    19
 74
     0
 42
0.000000001
 43
0.00000001
 40
0.0
 40
0.0
 40
0.0
 40
0.0
 40
0.071268692586561
 40
0.1398117850281267
 40
0.2064974320993711
 40
0.2715352442755388
 40
0.3360818306156439
 40
0.4005283877476353
 40
0.4649838426509144
 40
0.5300503053616137
 40
0.5944234089533967
 40
0.655582709982523
 40
0.7148491056365307
 40
0.7721150638706002
 40
0.8289992113006467
 40
0.8851221627752366
 40
0.9420793532637978
 40
1.0
 40
1.0
 40
1.0
 40
1.0
 10
39.44677020495489
 20
80.60083059781176
 30
0.0
 10
39.43500539910383
 20
80.60062133455686
 30
0.0
 10
39.41192572068054
 20
80.60021081111178
 30
0.0
 10
39.37811313176818
 20
80.59564126779108
 30
0.0
 10
39.34566267933702
 20
80.58928015791678
 30
0.0
 10
39.31468377477069
 20
80.57963010885032
 30
0.0
 10
39.28518950010403
 20
80.56708262592012
 30
0.0
 10
39.25702018853283
 20
80.55198832064204
 30
0.0
 10
39.23039133896481
 20
80.5341457870536
 30
0.0
 10
39.2056706656092
 20
80.5137817091731
 30
0.0
 10
39.18309666904312
 20
80.49183661794372
 30
0.0
 10
39.16329135924234
 20
80.4686053942468
 30
0.0
 10
39.1464723559636
 20
80.4445197940433
 30
0.0
 10
39.13292824030127
 20
80.41927392166697
 30
0.0
 10
39.12181130586239
 20
80.39340235447003
 30
0.0
 10
39.11451112011442
 20
80.36626079317263
 30
0.0
 10
39.10983112794199
 20
80.33837102122158
 30
0.0
 10
39.10920269281234
 20
80.31941169829643
 30
0.0
 10
39.10888583997092
 20
80.30985253290791
 30
0.0
  0
SPLINE
  5
166
330
1F
100
AcDbEntity
  8
0
  6
Continuous
 62
     7
370
    15
100
AcDbSpline
210
0.0
220
0.0
230
1.0
 70
     8
 71
     3
 72
    23
 73
    19
 74
     0
 42
0.000000001
 43
0.00000001
 40
0.0
 40
0.0
 40
0.0
 40
0.0
 40
0.0573394259201584
 40
0.1130633316232405
 40
0.1691814487493786
 40
0.2257745596549407
 40
0.2838263038920841
 40
0.3434542790864918
 40
0.4059069615102774
 40
0.4713922597696834
 40
0.5380028337126933
 40
0.603063556196349
 40
0.6676018307634217
 40
0.7322254428169056
 40
0.7970048098289856
 40
0.8630479900344343
 40
0.9303569870570443
 40
1.0
 40
1.0
 40
1.0
 40
1.0
 10
39.77034417330425
 20
80.32230787812694
 30
0.0
 10
39.77000178412636
 20
80.33133294436118
 30
0.0
 10
39.76932665247752
 20
80.34912879843871
 30
0.0
 10
39.76504165305927
 20
80.37549888442828
 30
0.0
 10
39.75751392569202
 20
80.40097554336384
 30
0.0
 10
39.74718482033082
 20
80.42586527774523
 30
0.0
 10
39.73343368265206
 20
80.44966377400411
 30
0.0
 10
39.71723934190835
 20
80.4729910173278
 30
0.0
 10
39.69770019587364
 20
80.49519955442233
 30
0.0
 10
39.67562162530479
 20
80.51646188535511
 30
0.0
 10
39.65156005384569
 20
80.53612259536278
 30
0.0
 10
39.62598348421329
 20
80.55351495757493
 30
0.0
 10
39.59908879170806
 20
80.5681623348524
 30
0.0
 10
39.57093288759401
 20
80.5800748197028
 30
0.0
 10
39.54157829055895
 20
80.58944389305526
 30
0.0
 10
39.5110465915136
 20
80.59598892695053
 30
0.0
 10
39.4793020439152
 20
80.60010871731052
 30
0.0
 10
39.45773666121253
 20
80.60058725248628
 30
0.0
 10
39.44677020495489
 20
80.60083059781176
 30
0.0
  0
SPLINE
  5
167
330
1F
100
AcDbEntity
  8
0
  6
Continuous
 62
     7
370
    15
100
AcDbSpline
210
0.0
220
0.0
230
1.0
 70
     8
 71
     3
 72
    15
 73
    11
 74
     0
 42
0.000000001
 43
0.00000001
 40
0.0
 40
0.0
 40
0.0
 40
0.0
 40
0.1099838451118727
 40
0.2225804973638886
 40
0.3384998709624456
 40
0.4587085654776341
 40
0.5855353464579961
 40
0.7175177429458921
 40
0.854666819751022
 40
1.0
 40
1.0
 40
1.0
 40
1.0
 10
37.03997349688865
 20
83.91858483792929
 30
0.0
 10
37.03366383376522
 20
83.91287954601171
 30
0.0
 10
37.02089461338758
 20
83.90133342565805
 30
0.0
 10
37.00383257103896
 20
83.88144083865811
 30
0.0
 10
36.98749626142244
 20
83.85999009938853
 30
0.0
 10
36.97262907719748
 20
83.83616054336481
 30
0.0
 10
36.95899260850585
 20
83.8102235227284
 30
0.0
 10
36.94623214094044
 20
83.78239780941048
 30
0.0
 10
36.93474680065958
 20
83.75247225124613
 30
0.0
 10
36.92828487811717
 20
83.73161838284734
 30
0.0
 10
36.92496030912156
 20
83.72088935849553
 30
0.0
  0
SPLINE
  5
168
330
1F
100
AcDbEntity
  8
0
  6
Continuous
 62
     7
370
    15
100
AcDbSpline
210
0.0
220
0.0
230
1.0
 70
     8
 71
     3
 72
    15
 73
    11
 74
     0
 42
0.000000001
 43
0.00000001
 40
0.0
 40
0.0
 40
0.0
 40
0.0
 40
0.1310919762569281
 40
0.2591412763281413
 40
0.3841617634834039
 40
0.5059919524977761
 40
0.6290980893898571
 40
0.7506691234237093
 40
0.8740389376151269
 40
1.0
 40
1.0
 40
1.0
 40
1.0
 10
37.28908040126899
 20
84.00921734994851
 30
0.0
 10
37.27723105992494
 20
84.00898615266809
 30
0.0
 10
37.25380740328917
 20
84.0085291242515
 30
0.0
 10
37.21929777334709
 20
84.00419368846205
 30
0.0
 10
37.18615693476791
 20
83.99702731852535
 30
0.0
 10
37.15414035284338
 20
83.98721318314301
 30
0.0
 10
37.1236675841432
 20
83.97413195541131
 30
0.0
 10
37.09411182353671
 20
83.95879246202021
 30
0.0
 10
37.06622459043228
 20
83.9400669229044
 30
0.0
 10
37.04878427934424
 20
83.9257949747982
 30
0.0
 10
37.03997349688865
 20
83.91858483792929
 30
0.0
  0
SPLINE
  5
169
330
1F
100
AcDbEntity
  8
0
  6
Continuous
 62
     7
370
    15
100
AcDbSpline
210
0.0
220
0.0
230
1.0
 70
     8
 71
     3
 72
    19
 73
    15
 74
     0
 42
0.000000001
 43
0.00000001
 40
0.0
 40
0.0
 40
0.0
 40
0.0
 40
0.0962401251801507
 40
0.1852312611287011
 40
0.2675005230774393
 40
0.3444003817777766
 40
0.4195948685557301
 40
0.4968906265927774
 40
0.5766379188385165
 40
0.6602678524196381
 40
0.7453866150876284
 40
0.8300403273864532
 40
0.9144742116388019
 40
0.9999999999999999
 40
0.9999999999999999
 40
0.9999999999999999
 40
0.9999999999999999
 10
37.65876564766322
 20
83.72088935849553
 30
0.0
 10
37.65442019731115
 20
83.7366369327902
 30
0.0
 10
37.64605660419048
 20
83.7669459441393
 30
0.0
 10
37.62858035929555
 20
83.8089167568964
 30
0.0
 10
37.60889855671099
 20
83.8462184337661
 30
0.0
 10
37.58560700943539
 20
83.87856549745098
 30
0.0
 10
37.55921719349913
 20
83.90729301575077
 30
0.0
 10
37.52873523458161
 20
83.93239765954931
 30
0.0
 10
37.49455262007677
 20
83.95485604135159
 30
0.0
 10
37.45684604011819
 20
83.97381249204292
 30
0.0
 10
37.4169159606401
 20
83.98994824221477
 30
0.0
 10
37.37510945355563
 20
84.00076785441776
 30
0.0
 10
37.33245189683065
 20
84.00817979451317
 30
0.0
 10
37.30359935407422
 20
84.00887002002125
 30
0.0
 10
37.28908040126899
 20
84.00921734994851
 30
0.0
  0
LINE
  5
16A
330
1F
100
AcDbEntity
  8
0
  6
Continuous
 62
     7
370
    15
100
AcDbLine
 10
36.9249602875
 20
83.7208893381
 30
0.0
 11
37.6587656422
 21
83.7208893381
 31
0.0
  0
SPLINE
  5
16B
330
1F
100
AcDbEntity
  8
0
  6
Continuous
 62
     7
370
    15
100
AcDbSpline
210
0.0
220
0.0
230
1.0
 70
     8
 71
     3
 72
    19
 73
    15
 74
     0
 42
0.000000001
 43
0.00000001
 40
0.0
 40
0.0
 40
0.0
 40
0.0
 40
0.0896899362473935
 40
0.1784940104960774
 40
0.2668377532994877
 40
0.3565581760610174
 40
0.4453342496549773
 40
0.5308058350374907
 40
0.6140762174402833
 40
0.697707085822802
 40
0.7791419498114608
 40
0.8553535905869748
 40
0.928556820085655
 40
0.9999999999999999
 40
0.9999999999999999
 40
0.9999999999999999
 40
0.9999999999999999
 10
39.44385512415895
 20
80.73651435849553
 30
0.0
 10
39.45509995505772
 20
80.73684428149546
 30
0.0
 10
39.47747855235023
 20
80.73750086886612
 30
0.0
 10
39.51046806160946
 20
80.74360562799563
 30
0.0
 10
39.54254412065888
 20
80.75320845996677
 30
0.0
 10
39.573363885135
 20
80.7663468996174
 30
0.0
 10
39.60212960633422
 20
80.78283719188167
 30
0.0
 10
39.62777153688381
 20
80.80258002907618
 30
0.0
 10
39.65007095769057
 20
80.82511954200724
 30
0.0
 10
39.66879612881677
 20
80.85010484005105
 30
0.0
 10
39.68331413624707
 20
80.87669606537473
 30
0.0
 10
39.69461630764435
 20
80.9033812951014
 30
0.0
 10
39.70121623130795
 20
80.93044523359987
 30
0.0
 10
39.70207709740138
 20
80.94857560384843
 30
0.0
 10
39.70250229296237
 20
80.95753048429681
 30
0.0
  0
SPLINE
  5
16C
330
1F
100
AcDbEntity
  8
0
  6
Continuous
 62
     7
370
    15
100
AcDbSpline
210
0.0
220
0.0
230
1.0
 70
     8
 71
     3
 72
    23
 73
    19
 74
     0
 42
0.000000001
 43
0.00000001
 40
0.0
 40
0.0
 40
0.0
 40
0.0
 40
0.0545639495070589
 40
0.1078262027811422
 40
0.1619237085214014
 40
0.2175097010530392
 40
0.2744983327961388
 40
0.3348147646240163
 40
0.3975549470643525
 40
0.4647545773562007
 40
0.5329012097695254
 40
0.600097213823328
 40
0.6653541614565464
 40
0.731083627724208
 40
0.7968834939590074
 40
0.8632915901470212
 40
0.9308312175092469
 40
0.9999999999999999
 40
0.9999999999999999
 40
0.9999999999999999
 40
0.9999999999999999
 10
39.1767277203128
 20
80.95488041084594
 30
0.0
 10
39.17698752863982
 20
80.94797081349576
 30
0.0
 10
39.1775009472176
 20
80.93431645651188
 30
0.0
 10
39.18147163548844
 20
80.91415298930978
 30
0.0
 10
39.18738955381775
 20
80.89433885875854
 30
0.0
 10
39.19670691691631
 20
80.8753452108295
 30
0.0
 10
39.20788229640441
 20
80.85651316732681
 30
0.0
 10
39.22167520551025
 20
80.83831339225596
 30
0.0
 10
39.23811302260297
 20
80.82068254738218
 30
0.0
 10
39.25664422770846
 20
80.80377059192512
 30
0.0
 10
39.27683251730446
 20
80.78793385706678
 30
0.0
 10
39.29821993840699
 20
80.77418566048841
 30
0.0
 10
39.32053806847856
 20
80.7626822913482
 30
0.0
 10
39.34355760058917
 20
80.75310837942449
 30
0.0
 10
39.36751314469551
 20
80.74566605191688
 30
0.0
 10
39.39225791293479
 20
80.74038623614997
 30
0.0
 10
39.41779606411459
 20
80.73710464806416
 30
0.0
 10
39.43510003363338
 20
80.73671267871893
 30
0.0
 10
39.44385512415895
 20
80.73651435849553
 30
0.0
  0
SPLINE
  5
16D
330
1F
100
AcDbEntity
  8
0
  6
Continuous
 62
     7
370
    15
100
AcDbSpline
210
0.0
220
0.0
230
1.0
 70
     8
 71
     3
 72
    23
 73
    19
 74
     0
 42
0.000000001
 43
0.00000001
 40
0.0
 40
0.0
 40
0.0
 40
0.0
 40
0.0509024376836547
 40
0.1010340427826156
 40
0.1510838170086602
 40
0.2030619875551393
 40
0.256248434362755
 40
0.3108467145046018
 40
0.3687690999693262
 40
0.4300150403860041
 40
0.4925196472738481
 40
0.5560487215256783
 40
0.6219956829149518
 40
0.6901923690829543
 40
0.7613848549885001
 40
0.8363562199507218
 40
0.9154870053271091
 40
1.0
 40
1.0
 40
1.0
 40
1.0
 10
39.70250229296237
 20
80.95753048429681
 30
0.0
 10
39.70230124834129
 20
80.96381548596838
 30
0.0
 10
39.70190220358484
 20
80.97629031343583
 30
0.0
 10
39.6986137895769
 20
80.99471225509596
 30
0.0
 10
39.69318006698248
 20
81.01271510362984
 30
0.0
 10
39.68582348612237
 20
81.03044758095095
 30
0.0
 10
39.67614359345579
 20
81.04766089337633
 30
0.0
 10
39.66466665354923
 20
81.06462563199895
 30
0.0
 10
39.65072519022036
 20
81.08096016176805
 30
0.0
 10
39.63507832402824
 20
81.097045145879
 30
0.0
 10
39.61733407731089
 20
81.11193136911199
 30
0.0
 10
39.59752664617761
 20
81.12502246494242
 30
0.0
 10
39.5757575798136
 20
81.13613963542522
 30
0.0
 10
39.55202636360216
 20
81.1451690159514
 30
0.0
 10
39.52642039526669
 20
81.15195079691628
 30
0.0
 10
39.49905761236572
 20
81.15702941646411
 30
0.0
 10
39.46970986009157
 20
81.1598918722796
 30
0.0
 10
39.449514686326
 20
81.16031011256985
 30
0.0
 10
39.43908499194741
 20
81.16052611063228
 30
0.0
  0
SPLINE
  5
16E
330
1F
100
AcDbEntity
  8
0
  6
Continuous
 62
     7
370
    15
100
AcDbSpline
210
0.0
220
0.0
230
1.0
 70
     8
 71
     3
 72
    23
 73
    19
 74
     0
 42
0.000000001
 43
0.00000001
 40
0.0
 40
0.0
 40
0.0
 40
0.0
 40
0.0752433085911289
 40
0.1472088117202525
 40
0.2164470898547688
 40
0.2840250416193517
 40
0.3506554491966467
 40
0.4150313178410252
 40
0.4796298309645127
 40
0.5446516341371369
 40
0.6080442396977419
 40
0.6678275650288182
 40
0.7251142466493379
 40
0.7809917079106394
 40
0.8355270040618598
 40
0.8894381545415834
 40
0.9440720891799443
 40
1.0
 40
1.0
 40
1.0
 40
1.0
 10
39.43908499194741
 20
81.16052611063228
 30
0.0
 10
39.42980537186725
 20
81.16027988161285
 30
0.0
 10
39.41165037747911
 20
81.15979814998731
 30
0.0
 10
39.3850300166695
 20
81.15728134374102
 30
0.0
 10
39.35971605640709
 20
81.15238533620781
 30
0.0
 10
39.33544401270692
 20
81.14586951368398
 30
0.0
 10
39.31254666404023
 20
81.13706720864509
 30
0.0
 10
39.29071303775864
 20
81.12671254740663
 30
0.0
 10
39.27031472494505
 20
81.11412364765133
 30
0.0
 10
39.25110548245317
 20
81.10000200439504
 30
0.0
 10
39.23381277898985
 20
81.08446986429902
 30
0.0
 10
39.21846522524019
 20
81.0682872979742
 30
0.0
 10
39.20571680112322
 20
81.05113648014276
 30
0.0
 10
39.19489114367165
 20
81.03344403465215
 30
0.0
 10
39.18703622486358
 20
81.01468485850637
 30
0.0
 10
39.18115328857353
 20
80.99543408647318
 30
0.0
 10
39.17717645309844
 20
80.9754484502337
 30
0.0
 10
39.17687846044107
 20
80.96178970964208
 30
0.0
 10
39.1767277203128
 20
80.95488041084594
 30
0.0
  0
SPLINE
  5
16F
330
1F
100
AcDbEntity
  8
0
  6
Continuous
 62
     7
370
    15
100
AcDbSpline
210
0.0
220
0.0
230
1.0
 70
     8
 71
     3
 72
    15
 73
    11
 74
     0
 42
0.000000001
 43
0.00000001
 40
0.0
 40
0.0
 40
0.0
 40
0.0
 40
0.1105883385953365
 40
0.224541754053595
 40
0.3425034940501046
 40
0.464324098417358
 40
0.5907560327017664
 40
0.722227475355514
 40
0.8588428362087245
 40
1.0
 40
1.0
 40
1.0
 40
1.0
 10
44.40134752867284
 20
80.2682463797295
 30
0.0
 10
44.40533584566632
 20
80.28005047768255
 30
0.0
 10
44.41343383958514
 20
80.30401785881028
 30
0.0
 10
44.42387043283628
 20
80.34119697730499
 30
0.0
 10
44.43208967598768
 20
80.38020516486486
 30
0.0
 10
44.43948416244654
 20
80.42080930124357
 30
0.0
 10
44.44453129964583
 20
80.46330883108999
 30
0.0
 10
44.44859371716659
 20
80.50757225596288
 30
0.0
 10
44.45098656609898
 20
80.55363294942688
 30
0.0
 10
44.4512831833194
 20
80.58492748478938
 30
0.0
 10
44.451433916894
 20
80.60083059781176
 30
0.0
  0
SPLINE
  5
170
330
1F
100
AcDbEntity
  8
0
  6
Continuous
 62
     7
370
    15
100
AcDbSpline
210
0.0
220
0.0
230
1.0
 70
     8
 71
     3
 72
    19
 73
    15
 74
     0
 42
0.000000001
 43
0.00000001
 40
0.0
 40
0.0
 40
0.0
 40
0.0
 40
0.1128134007444582
 40
0.2253938839207292
 40
0.3395948145627007
 40
0.459675410224863
 40
0.5217351900879337
 40
0.5839258387389168
 40
0.6481741447653698
 40
0.713881038113067
 40
0.7810044549073891
 40
0.8514509275565558
 40
0.9240506926641778
 40
1.0
 40
1.0
 40
1.0
 40
1.0
 10
44.11752466208631
 20
80.04113508499125
 30
0.0
 10
44.13217413917047
 20
80.04173900809562
 30
0.0
 10
44.16144284763612
 20
80.04294560742852
 30
0.0
 10
44.20420472853889
 20
80.05458679685272
 30
0.0
 10
44.24571795562355
 20
80.07215117635239
 30
0.0
 10
44.27825109971706
 20
80.09292002512693
 30
0.0
 10
44.30300194205243
 20
80.1126988877469
 30
0.0
 10
44.32073544724126
 20
80.12956216255566
 30
0.0
 10
44.33701187626217
 20
80.14844429097207
 30
0.0
 10
44.35244920812686
 20
80.16881694151134
 30
0.0
 10
44.36660784684921
 20
80.19106933880322
 30
0.0
 10
44.37948290187091
 20
80.21509447885911
 30
0.0
 10
44.39123166716328
 20
80.24095907884377
 30
0.0
 10
44.39792526488853
 20
80.25901490285482
 30
0.0
 10
44.40134752867284
 20
80.2682463797295
 30
0.0
  0
SPLINE
  5
171
330
1F
100
AcDbEntity
  8
0
  6
Continuous
 62
     7
370
    15
100
AcDbSpline
210
0.0
220
0.0
230
1.0
 70
     8
 71
     3
 72
    27
 73
    23
 74
     0
 42
0.000000001
 43
0.00000001
 40
0.0
 40
0.0
 40
0.0
 40
0.0
 40
0.0729510658758664
 40
0.1415836941865454
 40
0.205926460170867
 40
0.2653013571846053
 40
0.3205972327139283
 40
0.3718165030988107
 40
0.4187897697094522
 40
0.4616987286157649
 40
0.5021335821035662
 40
0.5408043152926486
 40
0.5781805253279667
 40
0.6142968652075151
 40
0.6496782432647878
 40
0.6842994600896382
 40
0.7183589527723614
 40
0.7520808646475974
 40
0.8176524386023862
 40
0.8797220764054373
 40
0.9399655597309877
 40
1.0
 40
1.0
 40
1.0
 40
1.0
 10
43.78997558356067
 20
80.60083059781176
 30
0.0
 10
43.7900207317082
 20
80.58316070272816
 30
0.0
 10
43.79010835539729
 20
80.54886690603324
 30
0.0
 10
43.79239745502023
 20
80.4990332925096
 30
0.0
 10
43.79551584628194
 20
80.45255343608169
 30
0.0
 10
43.7995380032537
 20
80.40936831962016
 30
0.0
 10
43.80551114153586
 20
80.36962411846318
 30
0.0
 10
43.81220388574076
 20
80.33304748230464
 30
0.0
 10
43.82034855056708
 20
80.2998319789908
 30
0.0
 10
43.82998506029656
 20
80.26974968149236
 30
0.0
 10
43.84096114751522
 20
80.24229006334083
 30
0.0
 10
43.85294520908099
 20
80.21673841357543
 30
0.0
 10
43.86581935136945
 20
80.19279288998216
 30
0.0
 10
43.88022748267966
 20
80.17066857967407
 30
0.0
 10
43.89591918812634
 20
80.15029333313463
 30
0.0
 10
43.91254003309795
 20
80.13130651853663
 30
0.0
 10
43.93071032535613
 20
80.11437432618656
 30
0.0
 10
43.95584715661502
 20
80.09406685419626
 30
0.0
 10
43.9890321335562
 20
80.07308194353061
 30
0.0
 10
44.03084403181319
 20
80.05480827267162
 30
0.0
 10
44.07380799989251
 20
80.04332442753203
 30
0.0
 10
44.10296933549084
 20
80.04186401977519
 30
0.0
 10
44.11752466208631
 20
80.04113508499125
 30
0.0
  0
SPLINE
  5
172
330
1F
100
AcDbEntity
  8
0
  6
Continuous
 62
     7
370
    15
100
AcDbSpline
210
0.0
220
0.0
230
1.0
 70
     8
 71
     3
 72
    27
 73
    23
 74
     0
 42
0.000000001
 43
0.00000001
 40
0.0
 40
0.0
 40
0.0
 40
0.0
 40
0.0603866193110623
 40
0.1208832485859957
 40
0.1827546186251396
 40
0.2478110297583505
 40
0.2812991000432483
 40
0.3150876241506567
 40
0.3497023955502749
 40
0.3848565811185554
 40
0.4209661972261022
 40
0.4585111882611386
 40
0.4971747221273121
 40
0.5376020478662693
 40
0.5805030184200112
 40
0.6274675400267046
 40
0.6783882095592435
 40
0.7339832205925602
 40
0.7937467045508347
 40
0.8577136721607318
 40
0.926697864361386
 40
0.9999999999999999
 40
0.9999999999999999
 40
0.9999999999999999
 40
0.9999999999999999
 10
44.11752466208631
 20
81.16052611063228
 30
0.0
 10
44.10289297995826
 20
81.1597582721674
 30
0.0
 10
44.07360296028013
 20
81.15822119641976
 30
0.0
 10
44.03034435834472
 20
81.14737582973484
 30
0.0
 10
43.98887872543231
 20
81.12847211939534
 30
0.0
 10
43.95590295821738
 20
81.10770143099342
 30
0.0
 10
43.93063003891243
 20
81.08791879541874
 30
0.0
 10
43.91283390183252
 20
81.0707637964145
 30
0.0
 10
43.89614769983357
 20
81.05199869431816
 30
0.0
 10
43.88077627746012
 20
81.0314360657884
 30
0.0
 10
43.86637943530114
 20
81.00933754897433
 30
0.0
 10
43.85315744542877
 20
80.98552929564067
 30
0.0
 10
43.84124464522383
 20
80.95989065499596
 30
0.0
 10
43.83025138303669
 20
80.9324433713703
 30
0.0
 10
43.82058547803869
 20
80.90236366915805
 30
0.0
 10
43.81261246217498
 20
80.86918907931768
 30
0.0
 10
43.80524682007311
 20
80.83272878093307
 30
0.0
 10
43.80003253688747
 20
80.79276932406093
 30
0.0
 10
43.79539712920373
 20
80.74957339109102
 30
0.0
 10
43.79241816732892
 20
80.70297749997455
 30
0.0
 10
43.79010069798787
 20
80.65306030857249
 30
0.0
 10
43.79001812366028
 20
80.61858919806701
 30
0.0
 10
43.78997558356067
 20
80.60083059781176
 30
0.0
  0
SPLINE
  5
173
330
1F
100
AcDbEntity
  8
0
  6
Continuous
 62
     7
370
    15
100
AcDbSpline
210
0.0
220
0.0
230
1.0
 70
     8
 71
     3
 72
    27
 73
    23
 74
     0
 42
0.000000001
 43
0.00000001
 40
0.0
 40
0.0
 40
0.0
 40
0.0
 40
0.0656811979906387
 40
0.1284864641740651
 40
0.1881751303280077
 40
0.2451061306699862
 40
0.2994484245294752
 40
0.3508229360093825
 40
0.3999416805337775
 40
0.4466717436323722
 40
0.4912545333734983
 40
0.5333763442704367
 40
0.573852754968224
 40
0.6125263117194527
 40
0.6495971364453288
 40
0.6855320415538497
 40
0.7201057860682002
 40
0.7538376629736495
 40
0.8189254160467132
 40
0.8804934616501633
 40
0.9403113338460569
 40
1.0
 40
1.0
 40
1.0
 40
1.0
 10
44.451433916894
 20
80.60083059781176
 30
0.0
 10
44.45122595846369
 20
80.61673113861471
 30
0.0
 10
44.45081914731799
 20
80.6478359955407
 30
0.0
 10
44.44926415791905
 20
80.6933889983505
 30
0.0
 10
44.44524869970333
 20
80.73665508655128
 30
0.0
 10
44.44078891370395
 20
80.77782065211191
 30
0.0
 10
44.43421317835069
 20
80.81665782009841
 30
0.0
 10
44.42712317396438
 20
80.85349171523994
 30
0.0
 10
44.41759771574755
 20
80.88786601331155
 30
0.0
 10
44.4074226817544
 20
80.92031889092277
 30
0.0
 10
44.39577708582436
 20
80.95048163830849
 30
0.0
 10
44.38295774579248
 20
80.97849488493935
 30
0.0
 10
44.36926678340063
 20
81.00449387316588
 30
0.0
 10
44.35439635322704
 20
81.02840727072605
 30
0.0
 10
44.33852298492558
 20
81.05034219021924
 30
0.0
 10
44.32122772079435
 20
81.06985883756671
 30
0.0
 10
44.30319660369025
 20
81.08756209634583
 30
0.0
 10
44.27794129833429
 20
81.10776967455548
 30
0.0
 10
44.24487809951092
 20
81.12837379755061
 30
0.0
 10
44.20373703637852
 20
81.14733526035496
 30
0.0
 10
44.16092342977169
 20
81.15822410905393
 30
0.0
 10
44.13198048730238
 20
81.15975933004752
 30
0.0
 10
44.11752466208631
 20
81.16052611063228
 30
0.0
  0
SPLINE
  5
174
330
1F
100
AcDbEntity
  8
0
  6
Continuous
 62
     7
370
    15
100
AcDbSpline
210
0.0
220
0.0
230
1.0
 70
     8
 71
     3
 72
    27
 73
    23
 74
     0
 42
0.000000001
 43
0.00000001
 40
0.0
 40
0.0
 40
0.0
 40
0.0
 40
0.0656811979906387
 40
0.1284864641740651
 40
0.1881751303280076
 40
0.2451061306699862
 40
0.2994484245294752
 40
0.3508229360093824
 40
0.3999416805337774
 40
0.4466717436323719
 40
0.4912545333734982
 40
0.5333763442704363
 40
0.5738527549682236
 40
0.6125263117194528
 40
0.6495971364453289
 40
0.6855320415538502
 40
0.7201057860682006
 40
0.75383766297365
 40
0.8189254160467132
 40
0.8804934616501633
 40
0.9403113338460569
 40
1.0
 40
1.0
 40
1.0
 40
1.0
 10
37.73508776304784
 20
80.60083059781176
 30
0.0
 10
37.73487980461753
 20
80.61673113861471
 30
0.0
 10
37.73447299347184
 20
80.6478359955407
 30
0.0
 10
37.7329180040729
 20
80.6933889983505
 30
0.0
 10
37.72890254585717
 20
80.73665508655128
 30
0.0
 10
37.72444275985779
 20
80.7778206521119
 30
0.0
 10
37.71786702450454
 20
80.81665782009841
 30
0.0
 10
37.71077702011823
 20
80.85349171523994
 30
0.0
 10
37.70125156190139
 20
80.88786601331154
 30
0.0
 10
37.69107652790825
 20
80.92031889092277
 30
0.0
 10
37.67943093197821
 20
80.95048163830849
 30
0.0
 10
37.66661159194634
 20
80.97849488493935
 30
0.0
 10
37.65292062955447
 20
81.00449387316588
 30
0.0
 10
37.63805019938088
 20
81.02840727072605
 30
0.0
 10
37.62217683107942
 20
81.05034219021925
 30
0.0
 10
37.60488156694819
 20
81.06985883756671
 30
0.0
 10
37.5868504498441
 20
81.08756209634583
 30
0.0
 10
37.56159514448813
 20
81.10776967455548
 30
0.0
 10
37.52853194566477
 20
81.12837379755061
 30
0.0
 10
37.48739088253236
 20
81.14733526035496
 30
0.0
 10
37.44457727592553
 20
81.15822410905393
 30
0.0
 10
37.41563433345623
 20
81.15975933004752
 30
0.0
 10
37.40117850824014
 20
81.16052611063228
 30
0.0
  0
SPLINE
  5
175
330
1F
100
AcDbEntity
  8
0
  6
Continuous
 62
     7
370
    15
100
AcDbSpline
210
0.0
220
0.0
230
1.0
 70
     8
 71
     3
 72
    15
 73
    11
 74
     0
 42
0.000000001
 43
0.00000001
 40
0.0
 40
0.0
 40
0.0
 40
0.0
 40
0.1105883385953361
 40
0.224541754053595
 40
0.3425034940501043
 40
0.4643240984173577
 40
0.5907560327017661
 40
0.7222274753555138
 40
0.8588428362087245
 40
1.0
 40
1.0
 40
1.0
 40
1.0
 10
37.68500137482668
 20
80.2682463797295
 30
0.0
 10
37.68898969182016
 20
80.28005047768255
 30
0.0
 10
37.69708768573899
 20
80.3040178588103
 30
0.0
 10
37.70752427899012
 20
80.34119697730499
 30
0.0
 10
37.71574352214152
 20
80.38020516486486
 30
0.0
 10
37.72313800860038
 20
80.42080930124357
 30
0.0
 10
37.72818514579968
 20
80.46330883108998
 30
0.0
 10
37.73224756332043
 20
80.50757225596288
 30
0.0
 10
37.73464041225283
 20
80.55363294942688
 30
0.0
 10
37.73493702947324
 20
80.58492748478938
 30
0.0
 10
37.73508776304784
 20
80.60083059781176
 30
0.0
  0
SPLINE
  5
176
330
1F
100
AcDbEntity
  8
0
  6
Continuous
 62
     7
370
    15
100
AcDbSpline
210
0.0
220
0.0
230
1.0
 70
     8
 71
     3
 72
    19
 73
    15
 74
     0
 42
0.000000001
 43
0.00000001
 40
0.0
 40
0.0
 40
0.0
 40
0.0
 40
0.1128134007444582
 40
0.2253938839207291
 40
0.3395948145627016
 40
0.4596754102248639
 40
0.5217351900879327
 40
0.5839258387389166
 40
0.6481741447653696
 40
0.713881038113066
 40
0.7810044549073893
 40
0.8514509275565555
 40
0.9240506926641774
 40
1.0
 40
1.0
 40
1.0
 40
1.0
 10
37.40117850824015
 20
80.04113508499125
 30
0.0
 10
37.41582798532431
 20
80.04173900809562
 30
0.0
 10
37.44509669378996
 20
80.04294560742852
 30
0.0
 10
37.48785857469273
 20
80.05458679685272
 30
0.0
 10
37.5293718017774
 20
80.07215117635239
 30
0.0
 10
37.5619049458709
 20
80.09292002512693
 30
0.0
 10
37.58665578820627
 20
80.1126988877469
 30
0.0
 10
37.60438929339511
 20
80.12956216255566
 30
0.0
 10
37.62066572241601
 20
80.14844429097207
 30
0.0
 10
37.6361030542807
 20
80.16881694151134
 30
0.0
 10
37.65026169300305
 20
80.19106933880322
 30
0.0
 10
37.66313674802475
 20
80.21509447885911
 30
0.0
 10
37.67488551331712
 20
80.24095907884377
 30
0.0
 10
37.68157911104237
 20
80.25901490285482
 30
0.0
 10
37.68500137482668
 20
80.2682463797295
 30
0.0
  0
SPLINE
  5
177
330
1F
100
AcDbEntity
  8
0
  6
Continuous
 62
     7
370
    15
100
AcDbSpline
210
0.0
220
0.0
230
1.0
 70
     8
 71
     3
 72
    27
 73
    23
 74
     0
 42
0.000000001
 43
0.00000001
 40
0.0
 40
0.0
 40
0.0
 40
0.0
 40
0.0729510658758664
 40
0.1415836941865454
 40
0.205926460170867
 40
0.2653013571846053
 40
0.3205972327139283
 40
0.3718165030988107
 40
0.4187897697094522
 40
0.4616987286157649
 40
0.5021335821035662
 40
0.5408043152926486
 40
0.5781805253279667
 40
0.6142968652075151
 40
0.6496782432647878
 40
0.6842994600896382
 40
0.7183589527723614
 40
0.7520808646475974
 40
0.8176524386023862
 40
0.8797220764054373
 40
0.9399655597309877
 40
1.0
 40
1.0
 40
1.0
 40
1.0
 10
37.07362942971451
 20
80.60083059781176
 30
0.0
 10
37.07367457786205
 20
80.58316070272816
 30
0.0
 10
37.07376220155113
 20
80.54886690603324
 30
0.0
 10
37.07605130117408
 20
80.4990332925096
 30
0.0
 10
37.07916969243578
 20
80.45255343608169
 30
0.0
 10
37.08319184940755
 20
80.40936831962016
 30
0.0
 10
37.0891649876897
 20
80.36962411846318
 30
0.0
 10
37.0958577318946
 20
80.33304748230464
 30
0.0
 10
37.10400239672092
 20
80.2998319789908
 30
0.0
 10
37.1136389064504
 20
80.26974968149236
 30
0.0
 10
37.12461499366906
 20
80.24229006334083
 30
0.0
 10
37.13659905523484
 20
80.21673841357543
 30
0.0
 10
37.1494731975233
 20
80.19279288998216
 30
0.0
 10
37.1638813288335
 20
80.17066857967407
 30
0.0
 10
37.17957303428017
 20
80.15029333313463
 30
0.0
 10
37.19619387925179
 20
80.13130651853663
 30
0.0
 10
37.21436417150997
 20
80.11437432618656
 30
0.0
 10
37.23950100276886
 20
80.09406685419626
 30
0.0
 10
37.27268597971004
 20
80.07308194353061
 30
0.0
 10
37.31449787796704
 20
80.05480827267162
 30
0.0
 10
37.35746184604636
 20
80.04332442753203
 30
0.0
 10
37.38662318164469
 20
80.04186401977519
 30
0.0
 10
37.40117850824014
 20
80.04113508499125
 30
0.0
  0
SPLINE
  5
178
330
1F
100
AcDbEntity
  8
0
  6
Continuous
 62
     7
370
    15
100
AcDbSpline
210
0.0
220
0.0
230
1.0
 70
     8
 71
     3
 72
    27
 73
    23
 74
     0
 42
0.000000001
 43
0.00000001
 40
0.0
 40
0.0
 40
0.0
 40
0.0
 40
0.0603866193110623
 40
0.1208832485859957
 40
0.1827546186251396
 40
0.2478110297583505
 40
0.2812991000432483
 40
0.3150876241506567
 40
0.3497023955502749
 40
0.3848565811185554
 40
0.4209661972261022
 40
0.4585111882611386
 40
0.4971747221273121
 40
0.5376020478662693
 40
0.5805030184200112
 40
0.6274675400267046
 40
0.6783882095592435
 40
0.7339832205925602
 40
0.7937467045508347
 40
0.8577136721607318
 40
0.926697864361386
 40
0.9999999999999999
 40
0.9999999999999999
 40
0.9999999999999999
 40
0.9999999999999999
 10
37.40117850824014
 20
81.16052611063228
 30
0.0
 10
37.3865468261121
 20
81.1597582721674
 30
0.0
 10
37.35725680643398
 20
81.15822119641976
 30
0.0
 10
37.31399820449857
 20
81.14737582973484
 30
0.0
 10
37.27253257158615
 20
81.12847211939534
 30
0.0
 10
37.23955680437123
 20
81.10770143099342
 30
0.0
 10
37.21428388506627
 20
81.08791879541874
 30
0.0
 10
37.19648774798637
 20
81.0707637964145
 30
0.0
 10
37.17980154598742
 20
81.05199869431816
 30
0.0
 10
37.16443012361396
 20
81.0314360657884
 30
0.0
 10
37.15003328145498
 20
81.00933754897433
 30
0.0
 10
37.13681129158262
 20
80.98552929564067
 30
0.0
 10
37.12489849137769
 20
80.95989065499596
 30
0.0
 10
37.11390522919054
 20
80.9324433713703
 30
0.0
 10
37.10423932419253
 20
80.90236366915805
 30
0.0
 10
37.09626630832881
 20
80.86918907931768
 30
0.0
 10
37.08890066622695
 20
80.83272878093307
 30
0.0
 10
37.08368638304132
 20
80.79276932406093
 30
0.0
 10
37.07905097535757
 20
80.74957339109102
 30
0.0
 10
37.07607201348277
 20
80.70297749997455
 30
0.0
 10
37.07375454414172
 20
80.65306030857249
 30
0.0
 10
37.07367196981413
 20
80.61858919806701
 30
0.0
 10
37.07362942971451
 20
80.60083059781176
 30
0.0
  0
SPLINE
  5
179
330
1F
100
AcDbEntity
  8
0
  6
Continuous
 62
     7
370
    15
100
AcDbSpline
210
0.0
220
0.0
230
1.0
 70
     8
 71
     3
 72
    19
 73
    15
 74
     0
 42
0.000000001
 43
0.00000001
 40
0.0
 40
0.0
 40
0.0
 40
0.0
 40
0.0815893489321834
 40
0.162858895167935
 40
0.2454836892755793
 40
0.330807139158011
 40
0.4164933737762847
 40
0.4998932031606322
 40
0.583048155995021
 40
0.6671578520621577
 40
0.7513119292929142
 40
0.833784789357615
 40
0.9162564885439797
 40
1.0
 40
1.0
 40
1.0
 40
1.0
 10
41.44095047672306
 20
83.62893180975087
 30
0.0
 10
41.44165536199193
 20
83.61245578709502
 30
0.0
 10
41.44306236961744
 20
83.57956832222843
 30
0.0
 10
41.45317349517859
 20
83.53081673517609
 30
0.0
 10
41.47013701876806
 20
83.48332249903982
 30
0.0
 10
41.49328506033491
 20
83.4374887306559
 30
0.0
 10
41.52227077861033
 20
83.39493462129225
 30
0.0
 10
41.55586857287859
 20
83.35647927734783
 30
0.0
 10
41.59440335182721
 20
83.32341029606614
 30
0.0
 10
41.63708726075104
 20
83.29572823699502
 30
0.0
 10
41.68267420194402
 20
83.273366212728
 30
0.0
 10
41.73061440818525
 20
83.25780658112863
 30
0.0
 10
41.7800066880837
 20
83.24776081285852
 30
0.0
 10
41.81359075474796
 20
83.24658739453022
 30
0.0
 10
41.8305112739987
 20
83.24599619610235
 30
0.0
  0
SPLINE
  5
17A
330
1F
100
AcDbEntity
  8
0
  6
Continuous
 62
     7
370
    15
100
AcDbSpline
210
0.0
220
0.0
230
1.0
 70
     8
 71
     3
 72
    19
 73
    15
 74
     0
 42
0.000000001
 43
0.00000001
 40
0.0
 40
0.0
 40
0.0
 40
0.0
 40
0.0859205174117674
 40
0.1695934351247438
 40
0.2524755148685386
 40
0.3362444769570506
 40
0.4195045210415722
 40
0.5020359066440894
 40
0.5847746476768716
 40
0.669846474705801
 40
0.7541848663887865
 40
0.8366582383293273
 40
0.9180097257088055
 40
1.0
 40
1.0
 40
1.0
 40
1.0
 10
41.83157130337904
 20
84.00921734994851
 30
0.0
 10
41.81421677686193
 20
84.00859987378252
 30
0.0
 10
41.7799617018733
 20
84.00738107404462
 30
0.0
 10
41.72967423680804
 20
83.99786609223376
 30
0.0
 10
41.68155279755452
 20
83.98203471281653
 30
0.0
 10
41.63583806114944
 20
83.96038351802967
 30
0.0
 10
41.59325215784268
 20
83.93315837055835
 30
0.0
 10
41.55519234773755
 20
83.90022856199268
 30
0.0
 10
41.52134733859409
 20
83.86249254771398
 30
0.0
 10
41.49288260776801
 20
83.82012061908436
 30
0.0
 10
41.46967846161087
 20
83.77469616204354
 30
0.0
 10
41.45336235132526
 20
83.72721311549938
 30
0.0
 10
41.44260165364382
 20
83.67852790076815
 30
0.0
 10
41.44150230212207
 20
83.6455068856081
 30
0.0
 10
41.44095047672306
 20
83.62893180975087
 30
0.0
  0
SPLINE
  5
17B
330
1F
100
AcDbEntity
  8
0
  6
Continuous
 62
     7
370
    15
100
AcDbSpline
210
0.0
220
0.0
230
1.0
 70
     8
 71
     3
 72
    23
 73
    19
 74
     0
 42
0.000000001
 43
0.00000001
 40
0.0
 40
0.0
 40
0.0
 40
0.0
 40
0.0656337996756899
 40
0.1291880880571289
 40
0.1912186831121887
 40
0.2519128178811572
 40
0.3125074743865506
 40
0.3734944337751983
 40
0.4351515996540498
 40
0.4987414744066493
 40
0.5620952169966309
 40
0.6241865668116559
 40
0.6854757184651954
 40
0.7460968148060529
 40
0.8076116364477851
 40
0.86996658065719
 40
0.9339510189149071
 40
1.0
 40
1.0
 40
1.0
 40
1.0
 10
42.22113210065468
 20
83.62548671426475
 30
0.0
 10
42.22076937339518
 20
83.63884357281977
 30
0.0
 10
42.2200554113608
 20
83.6651340973315
 30
0.0
 10
42.2146009996632
 20
83.70373586736616
 30
0.0
 10
42.20592458402536
 20
83.74067688880838
 30
0.0
 10
42.19369850190604
 20
83.7759960004466
 30
0.0
 10
42.1776378080942
 20
83.80949792591
 30
0.0
 10
42.15826737277405
 20
83.8414232162276
 30
0.0
 10
42.13524656290451
 20
83.87160582886595
 30
0.0
 10
42.10894596050958
 20
83.8996301443846
 30
0.0
 10
42.0801573274046
 20
83.92519133696473
 30
0.0
 10
42.04969450996331
 20
83.94800758270993
 30
0.0
 10
42.01719659072642
 20
83.96675095812054
 30
0.0
 10
41.98321009165334
 20
83.98226358157353
 30
0.0
 10
41.94767604559179
 20
83.99460796263601
 30
0.0
 10
41.91030530536275
 20
84.00284319212572
 30
0.0
 10
41.87149509304211
 20
84.00849783727898
 30
0.0
 10
41.84501935186552
 20
84.0089749871531
 30
0.0
 10
41.83157130337904
 20
84.00921734994851
 30
0.0
  0
SPLINE
  5
17C
330
1F
100
AcDbEntity
  8
0
  6
Continuous
 62
     7
370
    15
100
AcDbSpline
210
0.0
220
0.0
230
1.0
 70
     8
 71
     3
 72
    19
 73
    15
 74
     0
 42
0.000000001
 43
0.00000001
 40
0.0
 40
0.0
 40
0.0
 40
0.0
 40
0.0848023883688278
 40
0.1686635395998415
 40
0.2525519243727825
 40
0.338239689464245
 40
0.4231026613931557
 40
0.5055560510576225
 40
0.5861756559890523
 40
0.6671357203303605
 40
0.7484991803055339
 40
0.8304523987582789
 40
0.9134557062010135
 40
1.0
 40
1.0
 40
1.0
 40
1.0
 10
41.8305112739987
 20
83.24599619610235
 30
0.0
 10
41.8476889699832
 20
83.24662362294337
 30
0.0
 10
41.88185370357912
 20
83.24787151270071
 30
0.0
 10
41.93229035804567
 20
83.25742722904667
 30
0.0
 10
41.98123637076986
 20
83.2732148403278
 30
0.0
 10
42.02802499578192
 20
83.2950993316826
 30
0.0
 10
42.07161174773363
 20
83.32222190370321
 30
0.0
 10
42.11073148123747
 20
83.35397458394405
 30
0.0
 10
42.1438104335691
 20
83.39090406127589
 30
0.0
 10
42.17185347349897
 20
83.43148980394469
 30
0.0
 10
42.19384239588208
 20
83.4759821359403
 30
0.0
 10
42.20985953730478
 20
83.52335547589486
 30
0.0
 10
42.21932931716666
 20
83.57361147296159
 30
0.0
 10
42.22052286378751
 20
83.6079558739251
 30
0.0
 10
42.22113210065468
 20
83.62548671426475
 30
0.0
  0
SPLINE
  5
17D
330
1F
100
AcDbEntity
  8
0
  6
Continuous
 62
     7
370
    15
100
AcDbSpline
210
0.0
220
0.0
230
1.0
 70
     8
 71
     3
 72
    19
 73
    15
 74
     0
 42
0.000000001
 43
0.00000001
 40
0.0
 40
0.0
 40
0.0
 40
0.0
 40
0.0815893489321834
 40
0.162858895167935
 40
0.2454836892755793
 40
0.330807139158011
 40
0.4164933737762847
 40
0.4998932031606322
 40
0.583048155995021
 40
0.6671578520621577
 40
0.7513119292929142
 40
0.833784789357615
 40
0.9162564885439797
 40
1.0
 40
1.0
 40
1.0
 40
1.0
 10
38.47286821176579
 20
83.62893180975087
 30
0.0
 10
38.47357309703466
 20
83.61245578709502
 30
0.0
 10
38.47498010466018
 20
83.57956832222843
 30
0.0
 10
38.48509123022132
 20
83.53081673517609
 30
0.0
 10
38.50205475381078
 20
83.48332249903982
 30
0.0
 10
38.52520279537764
 20
83.4374887306559
 30
0.0
 10
38.55418851365307
 20
83.39493462129225
 30
0.0
 10
38.58778630792133
 20
83.35647927734783
 30
0.0
 10
38.62632108686994
 20
83.32341029606614
 30
0.0
 10
38.66900499579377
 20
83.29572823699502
 30
0.0
 10
38.71459193698676
 20
83.273366212728
 30
0.0
 10
38.76253214322799
 20
83.25780658112863
 30
0.0
 10
38.81192442312643
 20
83.24776081285852
 30
0.0
 10
38.8455084897907
 20
83.24658739453022
 30
0.0
 10
38.86242900904143
 20
83.24599619610235
 30
0.0
  0
SPLINE
  5
17E
330
1F
100
AcDbEntity
  8
0
  6
Continuous
 62
     7
370
    15
100
AcDbSpline
210
0.0
220
0.0
230
1.0
 70
     8
 71
     3
 72
    23
 73
    19
 74
     0
 42
0.000000001
 43
0.00000001
 40
0.0
 40
0.0
 40
0.0
 40
0.0
 40
0.06563379967569
 40
0.1291880880571289
 40
0.1912186831121887
 40
0.2519128178811572
 40
0.3125074743865506
 40
0.3734944337751983
 40
0.4351515996540498
 40
0.4987414744066493
 40
0.5620952169966309
 40
0.6241865668116559
 40
0.6854757184651954
 40
0.7460968148060529
 40
0.8076116364477851
 40
0.86996658065719
 40
0.9339510189149071
 40
1.0
 40
1.0
 40
1.0
 40
1.0
 10
39.25304983569742
 20
83.62548671426475
 30
0.0
 10
39.25268710843792
 20
83.63884357281977
 30
0.0
 10
39.25197314640353
 20
83.6651340973315
 30
0.0
 10
39.24651873470594
 20
83.70373586736616
 30
0.0
 10
39.23784231906809
 20
83.74067688880838
 30
0.0
 10
39.22561623694877
 20
83.7759960004466
 30
0.0
 10
39.20955554313694
 20
83.80949792591
 30
0.0
 10
39.19018510781679
 20
83.8414232162276
 30
0.0
 10
39.16716429794724
 20
83.87160582886595
 30
0.0
 10
39.14086369555231
 20
83.8996301443846
 30
0.0
 10
39.11207506244733
 20
83.92519133696473
 30
0.0
 10
39.08161224500603
 20
83.94800758270993
 30
0.0
 10
39.04911432576915
 20
83.96675095812054
 30
0.0
 10
39.01512782669607
 20
83.98226358157353
 30
0.0
 10
38.97959378063452
 20
83.99460796263601
 30
0.0
 10
38.94222304040549
 20
84.00284319212572
 30
0.0
 10
38.90341282808485
 20
84.00849783727898
 30
0.0
 10
38.87693708690826
 20
84.0089749871531
 30
0.0
 10
38.86348903842178
 20
84.00921734994851
 30
0.0
  0
SPLINE
  5
17F
330
1F
100
AcDbEntity
  8
0
  6
Continuous
 62
     7
370
    15
100
AcDbSpline
210
0.0
220
0.0
230
1.0
 70
     8
 71
     3
 72
    19
 73
    15
 74
     0
 42
0.000000001
 43
0.00000001
 40
0.0
 40
0.0
 40
0.0
 40
0.0
 40
0.0859205174117674
 40
0.1695934351247438
 40
0.2524755148685386
 40
0.3362444769570506
 40
0.4195045210415722
 40
0.5020359066440894
 40
0.5847746476768716
 40
0.669846474705801
 40
0.7541848663887865
 40
0.8366582383293273
 40
0.9180097257088055
 40
1.0
 40
1.0
 40
1.0
 40
1.0
 10
38.86348903842178
 20
84.00921734994851
 30
0.0
 10
38.84613451190466
 20
84.00859987378252
 30
0.0
 10
38.81187943691604
 20
84.00738107404462
 30
0.0
 10
38.76159197185077
 20
83.99786609223376
 30
0.0
 10
38.71347053259726
 20
83.98203471281653
 30
0.0
 10
38.66775579619218
 20
83.96038351802967
 30
0.0
 10
38.62516989288542
 20
83.93315837055835
 30
0.0
 10
38.58711008278029
 20
83.90022856199268
 30
0.0
 10
38.55326507363682
 20
83.86249254771398
 30
0.0
 10
38.52480034281075
 20
83.82012061908436
 30
0.0
 10
38.50159619665361
 20
83.77469616204354
 30
0.0
 10
38.48528008636799
 20
83.72721311549938
 30
0.0
 10
38.47451938868656
 20
83.67852790076815
 30
0.0
 10
38.47342003716481
 20
83.6455068856081
 30
0.0
 10
38.47286821176579
 20
83.62893180975087
 30
0.0
  0
SPLINE
  5
180
330
1F
100
AcDbEntity
  8
0
  6
Continuous
 62
     7
370
    15
100
AcDbSpline
210
0.0
220
0.0
230
1.0
 70
     8
 71
     3
 72
    19
 73
    15
 74
     0
 42
0.000000001
 43
0.00000001
 40
0.0
 40
0.0
 40
0.0
 40
0.0
 40
0.0848023883688278
 40
0.1686635395998416
 40
0.2525519243727825
 40
0.338239689464245
 40
0.4231026613931558
 40
0.5055560510576226
 40
0.5861756559890524
 40
0.6671357203303606
 40
0.748499180305534
 40
0.830452398758279
 40
0.9134557062010135
 40
1.0
 40
1.0
 40
1.0
 40
1.0
 10
38.86242900904143
 20
83.24599619610235
 30
0.0
 10
38.87960670502594
 20
83.24662362294337
 30
0.0
 10
38.91377143862185
 20
83.24787151270071
 30
0.0
 10
38.96420809308839
 20
83.25742722904667
 30
0.0
 10
39.0131541058126
 20
83.2732148403278
 30
0.0
 10
39.05994273082465
 20
83.2950993316826
 30
0.0
 10
39.10352948277637
 20
83.32222190370321
 30
0.0
 10
39.1426492162802
 20
83.35397458394405
 30
0.0
 10
39.17572816861184
 20
83.39090406127589
 30
0.0
 10
39.2037712085417
 20
83.43148980394469
 30
0.0
 10
39.22576013092481
 20
83.4759821359403
 30
0.0
 10
39.24177727234751
 20
83.52335547589486
 30
0.0
 10
39.25124705220939
 20
83.57361147296159
 30
0.0
 10
39.25244059883024
 20
83.6079558739251
 30
0.0
 10
39.25304983569742
 20
83.62548671426475
 30
0.0
  0
LINE
  5
181
330
1F
100
AcDbEntity
  8
0
  6
Continuous
 62
     7
370
    15
100
AcDbLine
 10
43.2811614221
 20
80.9548805
 30
0.0
 11
42.8868305965
 21
80.3803445769
 31
0.0
  0
LINE
  5
182
330
1F
100
AcDbEntity
  8
0
  6
Continuous
 62
     7
370
    15
100
AcDbLine
 10
42.8868305965
 20
80.3803445769
 30
0.0
 11
43.2811614221
 21
80.3803445769
 31
0.0
  0
LINE
  5
183
330
1F
100
AcDbEntity
  8
0
  6
Continuous
 62
     7
370
    15
100
AcDbLine
 10
43.2811614221
 20
80.3803445769
 30
0.0
 11
43.2811614221
 21
80.9548805
 31
0.0
  0
INSERT
  5
18F
330
1F
100
AcDbEntity
  8
0
  6
Continuous
 62
     7
370
     0
100
AcDbBlockReference
  2
SW_CENTERMARKSYMBOL_0
 10
40.2621978058
 20
83.1442333756
 30
0.0
  0
ENDSEC
  0
SECTION
  2
OBJECTS
  0
DICTIONARY
  5
C
330
0
100
AcDbDictionary
281
     1
  3
ACAD_GROUP
350
D
  3
ACAD_LAYOUT
350
1A
  3
ACAD_MLINESTYLE
350
17
  3
ACAD_PLOTSETTINGS
350
19
  3
ACAD_PLOTSTYLENAME
350
E
  3
ACAD_SCALELIST
350
47
  0
DICTIONARY
  5
D
102
{ACAD_REACTORS
330
C
102
}
330
C
100
AcDbDictionary
281
     1
  0
DICTIONARY
  5
1A
102
{ACAD_REACTORS
330
C
102
}
330
C
100
AcDbDictionary
281
     1
  3
Layout1
350
1E
  3
Layout2
350
26
  3
Model
350
22
  0
DICTIONARY
  5
17
102
{ACAD_REACTORS
330
C
102
}
330
C
100
AcDbDictionary
281
     1
  3
Standard
350
18
  0
DICTIONARY
  5
19
102
{ACAD_REACTORS
330
C
102
}
330
C
100
AcDbDictionary
281
     1
  0
ACDBDICTIONARYWDFLT
  5
E
102
{ACAD_REACTORS
330
C
102
}
330
C
100
AcDbDictionary
281
     1
  3
Normal
350
F
100
AcDbDictionaryWithDefault
340
F
  0
DICTIONARY
  5
47
102
{ACAD_REACTORS
330
C
102
}
330
C
100
AcDbDictionary
281
     1
  3
A0
350
48
  3
A1
350
49
  3
A2
350
4A
  3
A3
350
4B
  3
A4
350
4C
  3
A5
350
4D
  3
A6
350
4E
  3
A7
350
4F
  3
A8
350
50
  3
A9
350
51
  3
B0
350
52
  3
B1
350
53
  3
B2
350
54
  3
B3
350
55
  3
B4
350
56
  3
B5
350
57
  3
B6
350
58
  3
B7
350
59
  3
B8
350
5A
  3
B9
350
5B
  3
C0
350
5C
  3
C1
350
5D
  3
C2
350
5E
  3
C3
350
5F
  3
C4
350
60
  3
C5
350
61
  3
C6
350
62
  3
C7
350
63
  3
C8
350
64
  3
C9
350
65
  3
D0
350
66
  3
D1
350
67
  3
D2
350
68
  0
LAYOUT
  5
1E
102
{ACAD_REACTORS
330
1A
102
}
330
1A
100
AcDbPlotSettings
  1

  2
none_device
  4

  6

 40
0.0
 41
0.0
 42
0.0
 43
0.0
 44
0.0
 45
0.0
 46
0.0
 47
0.0
 48
0.0
 49
0.0
140
0.0
141
0.0
142
1.0
143
1.0
 70
   688
 72
     1
 73
     0
 74
     5
  7

 75
    16
147
1.0
148
0.0
149
0.0
100
AcDbLayout
  1
Layout1
 70
     1
 71
     1
 10
0.0
 20
0.0
 11
420.0
 21
297.0
 12
0.0
 22
0.0
 32
0.0
 14
1.0000000000E+20
 24
1.0000000000E+20
 34
1.0000000000E+20
 15
-1.0000000000E+20
 25
-1.0000000000E+20
 35
-1.0000000000E+20
146
0.0
 13
0.0
 23
0.0
 33
0.0
 16
1.0
 26
0.0
 36
0.0
 17
0.0
 27
1.0
 37
0.0
 76
     0
330
1B
  0
LAYOUT
  5
26
102
{ACAD_REACTORS
330
1A
102
}
330
1A
100
AcDbPlotSettings
  1

  2
none_device
  4

  6

 40
0.0
 41
0.0
 42
0.0
 43
0.0
 44
0.0
 45
0.0
 46
0.0
 47
0.0
 48
0.0
 49
0.0
140
0.0
141
0.0
142
1.0
143
1.0
 70
   688
 72
     1
 73
     0
 74
     5
  7

 75
    16
147
1.0
148
0.0
149
0.0
100
AcDbLayout
  1
Layout2
 70
     1
 71
     2
 10
0.0
 20
0.0
 11
0.0
 21
0.0
 12
0.0
 22
0.0
 32
0.0
 14
0.0
 24
0.0
 34
0.0
 15
0.0
 25
0.0
 35
0.0
146
0.0
 13
0.0
 23
0.0
 33
0.0
 16
1.0
 26
0.0
 36
0.0
 17
0.0
 27
1.0
 37
0.0
 76
     0
330
23
  0
LAYOUT
  5
22
102
{ACAD_REACTORS
330
1A
102
}
330
1A
100
AcDbPlotSettings
  1

  2
none_device
  4
Letter_(8.50_x_11.00_Inches)
  6

 40
6.35
 41
6.35
 42
6.35000508
 43
6.35000508
 44
215.9
 45
279.4
 46
0.0
 47
0.0
 48
0.0
 49
0.0
140
0.0
141
0.0
142
1.0
143
1.0
 70
  1712
 72
     1
 73
     0
 74
     0
  7

 75
     0
147
1.0
148
0.0
149
0.0
100
AcDbLayout
  1
Model
 70
     1
 71
     0
 10
0.0
 20
0.0
 11
297.0
 21
210.0
 12
0.0
 22
0.0
 32
0.0
 14
0.0
 24
0.0
 34
0.0
 15
297.0
 25
210.0
 35
0.0
146
0.0
 13
0.0
 23
0.0
 33
0.0
 16
1.0
 26
0.0
 36
0.0
 17
0.0
 27
1.0
 37
0.0
 76
     0
330
1F
331
29
  0
MLINESTYLE
  5
18
102
{ACAD_REACTORS
330
17
102
}
330
17
100
AcDbMlineStyle
  2
Standard
 70
     0
  3

 62
   256
 51
90.0
 52
90.0
 71
     2
 49
0.5
 62
   256
  6
BYLAYER
 49
-0.5
 62
   256
  6
BYLAYER
  0
ACDBPLACEHOLDER
  5
F
102
{ACAD_REACTORS
330
E
102
}
330
E
  0
SCALE
  5
48
102
{ACAD_REACTORS
330
47
102
}
330
47
100
AcDbScale
 70
     0
300
1:1
140
1.0
141
1.0
290
     1
  0
SCALE
  5
49
102
{ACAD_REACTORS
330
47
102
}
330
47
100
AcDbScale
 70
     0
300
1:2
140
1.0
141
2.0
290
     0
  0
SCALE
  5
4A
102
{ACAD_REACTORS
330
47
102
}
330
47
100
AcDbScale
 70
     0
300
1:4
140
1.0
141
4.0
290
     0
  0
SCALE
  5
4B
102
{ACAD_REACTORS
330
47
102
}
330
47
100
AcDbScale
 70
     0
300
1:5
140
1.0
141
5.0
290
     0
  0
SCALE
  5
4C
102
{ACAD_REACTORS
330
47
102
}
330
47
100
AcDbScale
 70
     0
300
1:8
140
1.0
141
8.0
290
     0
  0
SCALE
  5
4D
102
{ACAD_REACTORS
330
47
102
}
330
47
100
AcDbScale
 70
     0
300
1:10
140
1.0
141
10.0
290
     0
  0
SCALE
  5
4E
102
{ACAD_REACTORS
330
47
102
}
330
47
100
AcDbScale
 70
     0
300
1:16
140
1.0
141
16.0
290
     0
  0
SCALE
  5
4F
102
{ACAD_REACTORS
330
47
102
}
330
47
100
AcDbScale
 70
     0
300
1:20
140
1.0
141
20.0
290
     0
  0
SCALE
  5
50
102
{ACAD_REACTORS
330
47
102
}
330
47
100
AcDbScale
 70
     0
300
1:30
140
1.0
141
30.0
290
     0
  0
SCALE
  5
51
102
{ACAD_REACTORS
330
47
102
}
330
47
100
AcDbScale
 70
     0
300
1:40
140
1.0
141
40.0
290
     0
  0
SCALE
  5
52
102
{ACAD_REACTORS
330
47
102
}
330
47
100
AcDbScale
 70
     0
300
1:50
140
1.0
141
50.0
290
     0
  0
SCALE
  5
53
102
{ACAD_REACTORS
330
47
102
}
330
47
100
AcDbScale
 70
     0
300
1:100
140
1.0
141
100.0
290
     0
  0
SCALE
  5
54
102
{ACAD_REACTORS
330
47
102
}
330
47
100
AcDbScale
 70
     0
300
2:1
140
2.0
141
1.0
290
     0
  0
SCALE
  5
55
102
{ACAD_REACTORS
330
47
102
}
330
47
100
AcDbScale
 70
     0
300
4:1
140
4.0
141
1.0
290
     0
  0
SCALE
  5
56
102
{ACAD_REACTORS
330
47
102
}
330
47
100
AcDbScale
 70
     0
300
8:1
140
8.0
141
1.0
290
     0
  0
SCALE
  5
57
102
{ACAD_REACTORS
330
47
102
}
330
47
100
AcDbScale
 70
     0
300
10:1
140
10.0
141
1.0
290
     0
  0
SCALE
  5
58
102
{ACAD_REACTORS
330
47
102
}
330
47
100
AcDbScale
 70
     0
300
100:1
140
100.0
141
1.0
290
     0
  0
SCALE
  5
59
102
{ACAD_REACTORS
330
47
102
}
330
47
100
AcDbScale
 70
     0
300
1/128" = 1'-0"
140
0.0078125
141
12.0
290
     0
  0
SCALE
  5
5A
102
{ACAD_REACTORS
330
47
102
}
330
47
100
AcDbScale
 70
     0
300
1/64" = 1'-0"
140
0.015625
141
12.0
290
     0
  0
SCALE
  5
5B
102
{ACAD_REACTORS
330
47
102
}
330
47
100
AcDbScale
 70
     0
300
1/32" = 1'-0"
140
0.03125
141
12.0
290
     0
  0
SCALE
  5
5C
102
{ACAD_REACTORS
330
47
102
}
330
47
100
AcDbScale
 70
     0
300
1/16" = 1'-0"
140
0.0625
141
12.0
290
     0
  0
SCALE
  5
5D
102
{ACAD_REACTORS
330
47
102
}
330
47
100
AcDbScale
 70
     0
300
3/32" = 1'-0"
140
0.09375
141
12.0
290
     0
  0
SCALE
  5
5E
102
{ACAD_REACTORS
330
47
102
}
330
47
100
AcDbScale
 70
     0
300
1/8" = 1'-0"
140
0.125
141
12.0
290
     0
  0
SCALE
  5
5F
102
{ACAD_REACTORS
330
47
102
}
330
47
100
AcDbScale
 70
     0
300
3/16" = 1'-0"
140
0.1875
141
12.0
290
     0
  0
SCALE
  5
60
102
{ACAD_REACTORS
330
47
102
}
330
47
100
AcDbScale
 70
     0
300
1/4" = 1'-0"
140
0.25
141
12.0
290
     0
  0
SCALE
  5
61
102
{ACAD_REACTORS
330
47
102
}
330
47
100
AcDbScale
 70
     0
300
3/8" = 1'-0"
140
0.375
141
12.0
290
     0
  0
SCALE
  5
62
102
{ACAD_REACTORS
330
47
102
}
330
47
100
AcDbScale
 70
     0
300
1/2" = 1'-0"
140
0.5
141
12.0
290
     0
  0
SCALE
  5
63
102
{ACAD_REACTORS
330
47
102
}
330
47
100
AcDbScale
 70
     0
300
3/4" = 1'-0"
140
0.75
141
12.0
290
     0
  0
SCALE
  5
64
102
{ACAD_REACTORS
330
47
102
}
330
47
100
AcDbScale
 70
     0
300
1" = 1'-0"
140
1.0
141
12.0
290
     0
  0
SCALE
  5
65
102
{ACAD_REACTORS
330
47
102
}
330
47
100
AcDbScale
 70
     0
300
1-1/2" = 1'-0"
140
1.5
141
12.0
290
     0
  0
SCALE
  5
66
102
{ACAD_REACTORS
330
47
102
}
330
47
100
AcDbScale
 70
     0
300
3" = 1'-0"
140
3.0
141
12.0
290
     0
  0
SCALE
  5
67
102
{ACAD_REACTORS
330
47
102
}
330
47
100
AcDbScale
 70
     0
300
6" = 1'-0"
140
6.0
141
12.0
290
     0
  0
SCALE
  5
68
102
{ACAD_REACTORS
330
47
102
}
330
47
100
AcDbScale
 70
     0
300
1'-0" = 1'-0"
140
12.0
141
12.0
290
     0
  0
ENDSEC
  0
EOF
